  0
SECTION
  2
HEADER
  9
$ACADVER
  1
AC1009
9
$DWGCODEPAGE
  3
dos932
  9
$LIMMIN
 10
0.0
 20
0.0
  9
$LIMMAX
 10
1189.0
 20
841.0
  9
$LTSCALE
 40
11.0
  9
$TEXTSIZE
 40
4.0
  9
$PDMODE
 70
  35
  9
$PDSIZE
 40
 0.0
  0
ENDSEC
  0
SECTION
  2
TABLES
  0
TABLE
  2
LTYPE
 70
     5
  0
LTYPE
  2
continuous
 70
    64
  3
実線
 72
    65
 73
0
 40
0
  0
LTYPE
  2
dashed
 70
    64
  3
破線
 72
    65
 73
2
 40
1.875
 49
1.5
49
-0.375
  0
LTYPE
  2
dashed_spaced
 70
    64
  3
跳び破線
 72
    65
 73
2
 40
3
 49
1.5
49
-1.5
  0
LTYPE
  2
long_dashed_dotted
 70
    64
  3
一点長鎖線
 72
    65
 73
4
 40
3.8125
 49
3
49
-0.375
 49
0.0625
49
-0.375
  0
LTYPE
  2
long_dashed_double-dotted
 70
    64
  3
二点長鎖線
 72
    65
 73
6
 40
4.25
 49
3
49
-0.375
 49
0.0625
49
-0.375
 49
0.0625
49
-0.375
  0
LTYPE
  2
long_dashed_triplicate-dotted
 70
    64
  3
三点長鎖線
 72
    65
 73
8
 40
4.6875
 49
3
49
-0.375
 49
0.0625
49
-0.375
 49
0.0625
49
-0.375
 49
0.0625
49
-0.375
  0
LTYPE
  2
dotted
 70
    64
  3
点線
 72
    65
 73
2
 40
0.4375
 49
0.0625
49
-0.375
  0
LTYPE
  2
chain
 70
    64
  3
一点鎖線
 72
    65
 73
4
 40
4.625
 49
3
49
-0.375
 49
0.875
49
-0.375
  0
LTYPE
  2
chain_double_dash
 70
    64
  3
二点鎖線
 72
    65
 73
6
 40
5.875
 49
3
49
-0.375
 49
0.875
49
-0.375
 49
0.875
49
-0.375
  0
LTYPE
  2
dashed_dotted
 70
    64
  3
一点短鎖線
 72
    65
 73
4
 40
2.3125
 49
1.5
49
-0.375
 49
0.0625
49
-0.375
  0
LTYPE
  2
double-dashed_dotted
 70
    64
  3
一点二短鎖線
 72
    65
 73
6
 40
4.1875
 49
1.5
49
-0.375
 49
1.5
49
-0.375
 49
0.0625
49
-0.375
  0
LTYPE
  2
dashed_double-dotted
 70
    64
  3
二点短鎖線
 72
    65
 73
6
 40
2.75
 49
1.5
49
-0.375
 49
0.0625
49
-0.375
 49
0.0625
49
-0.375
  0
LTYPE
  2
double-dashed_double-dotted
 70
    64
  3
二点二短鎖線
 72
    65
 73
8
 40
4.625
 49
1.5
49
-0.375
 49
1.5
49
-0.375
 49
0.0625
49
-0.375
 49
0.0625
49
-0.375
  0
LTYPE
  2
dashed_triplicate-dotted
 70
    64
  3
三点短鎖線
 72
    65
 73
8
 40
3.1875
 49
1.5
49
-0.375
 49
0.0625
49
-0.375
 49
0.0625
49
-0.375
 49
0.0625
49
-0.375
  0
LTYPE
  2
double-dashed_triplicate-dotted
 70
    64
  3
三点二短鎖線
 72
    65
 73
10
 40
5.0625
 49
1.5
49
-0.375
 49
1.5
49
-0.375
 49
0.0625
49
-0.375
 49
0.0625
49
-0.375
 49
0.0625
49
-0.375
  0
LTYPE
  2
chain_double_dash
 70
    64
  3
chain_double_dash
 72
    65
 73
6
 40
16.15625
 49
8.25
49
-1.03125
 49
2.40625
49
-1.03125
 49
2.40625
49
-1.03125
  0
LTYPE
  2
line_font16
 70
    64
  3
dashed
 72
    65
 73
2
 40
5.15625
 49
4.125
49
-1.03125
  0
LTYPE
  2
line_font22
 70
    64
  3
chain
 72
    65
 73
4
 40
12.71875
 49
8.25
49
-1.03125
 49
2.40625
49
-1.03125
  0
LTYPE
  2
line_font21
 70
    64
  3
dotted
 72
    65
 73
2
 40
1.203125
 49
0.171875
49
-1.03125
  0
LTYPE
  2
line_font8447
 70
    64
  3
線種8447
 72
    65
 73
4
 40
7.5
 49
4.6875
49
-0.9375
 49
0.9375
49
-0.9375
  0
LTYPE
  2
line_font8445
 70
    64
  3
線種8445
 72
    65
 73
2
 40
1.875
 49
1.40625
49
-0.46875
  0
LTYPE
  2
line_font8449
 70
    64
  3
線種8449
 72
    65
 73
6
 40
7.5
 49
3.75
49
-0.9375
 49
0.46875
49
-0.9375
 49
0.46875
49
-0.9375
  0
LTYPE
  2
BORDER
 70
    64
  3
BORDER
 72
    65
 73
4
 40
1.7124999999999999
 49
1.5
49
-0.074999999999999997
 49
0.0625
49
-0.074999999999999997
  0
LTYPE
  2
dashed_spaced
 70
    64
  3
dashed_spaced
 72
    65
 73
2
 40
8.25
 49
4.125
49
-4.125
  0
LTYPE
  2
long_dashed_dotted
 70
    64
  3
long_dashed_dotted
 72
    65
 73
4
 40
10.484375
 49
8.25
49
-1.03125
 49
0.171875
49
-1.03125
  0
LTYPE
  2
long_dashed_double-dotted
 70
    64
  3
long_dashed_double-dotted
 72
    65
 73
6
 40
11.6875
 49
8.25
49
-1.03125
 49
0.171875
49
-1.03125
 49
0.171875
49
-1.03125
  0
LTYPE
  2
long_dashed_triplicate-dotted
 70
    64
  3
long_dashed_triplicate-dotted
 72
    65
 73
8
 40
12.890625
 49
8.25
49
-1.03125
 49
0.171875
49
-1.03125
 49
0.171875
49
-1.03125
 49
0.171875
49
-1.03125
  0
LTYPE
  2
line_font28
 70
    64
  3
線種28
 72
    65
 73
6
 40
44.4296875
 49
22.6875
49
-2.8359375
 49
6.6171875
49
-2.8359375
 49
6.6171875
49
-2.8359375
  0
LTYPE
  2
dashed_dotted
 70
    64
  3
dashed_dotted
 72
    65
 73
4
 40
6.359375
 49
4.125
49
-1.03125
 49
0.171875
49
-1.03125
  0
LTYPE
  2
double-dashed_dotted
 70
    64
  3
double-dashed_dotted
 72
    65
 73
6
 40
11.515625
 49
4.125
49
-1.03125
 49
4.125
49
-1.03125
 49
0.171875
49
-1.03125
  0
LTYPE
  2
dashed_double-dotted
 70
    64
  3
dashed_double-dotted
 72
    65
 73
6
 40
7.5625
 49
4.125
49
-1.03125
 49
0.171875
49
-1.03125
 49
0.171875
49
-1.03125
  0
LTYPE
  2
double-dashed_double-dotted
 70
    64
  3
double-dashed_double-dotted
 72
    65
 73
8
 40
12.71875
 49
4.125
49
-1.03125
 49
4.125
49
-1.03125
 49
0.171875
49
-1.03125
 49
0.171875
49
-1.03125
  0
LTYPE
  2
dashed_triplicate-dotted
 70
    64
  3
dashed_triplicate-dotted
 72
    65
 73
8
 40
8.765625
 49
4.125
49
-1.03125
 49
0.171875
49
-1.03125
 49
0.171875
49
-1.03125
 49
0.171875
49
-1.03125
  0
LTYPE
  2
double-dashed_triplicate-dotted
 70
    64
  3
double-dashed_triplicate-dotted
 72
    65
 73
10
 40
13.921875
 49
4.125
49
-1.03125
 49
4.125
49
-1.03125
 49
0.171875
49
-1.03125
 49
0.171875
49
-1.03125
 49
0.171875
49
-1.03125
  0
LTYPE
  2
line_font35
 70
    64
  3
line_font16
 72
    65
 73
2
 40
14.1796875
 49
11.34375
49
-2.8359375
  0
LTYPE
  2
line_font36
 70
    64
  3
line_font22
 72
    65
 73
4
 40
34.9765625
 49
22.6875
49
-2.8359375
 49
6.6171875
49
-2.8359375
  0
LTYPE
  2
line_font37
 70
    64
  3
line_font21
 72
    65
 73
2
 40
3.30859375
 49
0.47265625
49
-2.8359375
  0
LTYPE
  2
line_font38
 70
    64
  3
line_font8447
 72
    65
 73
4
 40
20.625
 49
12.890625
49
-2.578125
 49
2.578125
49
-2.578125
  0
LTYPE
  2
line_font39
 70
    64
  3
line_font8445
 72
    65
 73
2
 40
5.15625
 49
3.8671875
49
-1.2890625
  0
LTYPE
  2
line_font40
 70
    64
  3
line_font8449
 72
    65
 73
6
 40
20.625
 49
10.3125
49
-2.578125
 49
1.2890625
49
-2.578125
 49
1.2890625
49
-2.578125
  0
LTYPE
  2
line_font41
 70
    64
  3
線種41
 72
    65
 73
4
 40
4.7093749999999996
 49
4.125
49
-0.20624999999999999
 49
0.171875
49
-0.20624999999999999
  0
LTYPE
  2
line_font42
 70
    64
  3
線種42
 72
    65
 73
2
 40
51.5625
 49
41.25
49
-10.3125
  0
LTYPE
  2
line_font43
 70
    64
  3
線種43
 72
    65
 73
2
 40
82.5
 49
41.25
49
-41.25
  0
LTYPE
  2
line_font44
 70
    64
  3
線種44
 72
    65
 73
4
 40
104.84375
 49
82.5
49
-10.3125
 49
1.71875
49
-10.3125
  0
LTYPE
  2
line_font45
 70
    64
  3
線種45
 72
    65
 73
6
 40
116.875
 49
82.5
49
-10.3125
 49
1.71875
49
-10.3125
 49
1.71875
49
-10.3125
  0
LTYPE
  2
line_font46
 70
    64
  3
線種46
 72
    65
 73
8
 40
128.90625
 49
82.5
49
-10.3125
 49
1.71875
49
-10.3125
 49
1.71875
49
-10.3125
 49
1.71875
49
-10.3125
  0
LTYPE
  2
line_font47
 70
    64
  3
線種47
 72
    65
 73
2
 40
12.03125
 49
1.71875
49
-10.3125
  0
LTYPE
  2
line_font48
 70
    64
  3
線種48
 72
    65
 73
4
 40
127.1875
 49
82.5
49
-10.3125
 49
24.0625
49
-10.3125
  0
LTYPE
  2
line_font49
 70
    64
  3
線種49
 72
    65
 73
6
 40
444.296875
 49
226.875
49
-28.359375
 49
66.171875
49
-28.359375
 49
66.171875
49
-28.359375
  0
LTYPE
  2
line_font50
 70
    64
  3
線種50
 72
    65
 73
4
 40
63.59375
 49
41.25
49
-10.3125
 49
1.71875
49
-10.3125
  0
LTYPE
  2
line_font51
 70
    64
  3
線種51
 72
    65
 73
6
 40
115.15625
 49
41.25
49
-10.3125
 49
41.25
49
-10.3125
 49
1.71875
49
-10.3125
  0
LTYPE
  2
line_font52
 70
    64
  3
線種52
 72
    65
 73
6
 40
75.625
 49
41.25
49
-10.3125
 49
1.71875
49
-10.3125
 49
1.71875
49
-10.3125
  0
LTYPE
  2
line_font53
 70
    64
  3
線種53
 72
    65
 73
8
 40
127.1875
 49
41.25
49
-10.3125
 49
41.25
49
-10.3125
 49
1.71875
49
-10.3125
 49
1.71875
49
-10.3125
  0
LTYPE
  2
line_font54
 70
    64
  3
線種54
 72
    65
 73
8
 40
87.65625
 49
41.25
49
-10.3125
 49
1.71875
49
-10.3125
 49
1.71875
49
-10.3125
 49
1.71875
49
-10.3125
  0
LTYPE
  2
line_font55
 70
    64
  3
線種55
 72
    65
 73
10
 40
139.21875
 49
41.25
49
-10.3125
 49
41.25
49
-10.3125
 49
1.71875
49
-10.3125
 49
1.71875
49
-10.3125
 49
1.71875
49
-10.3125
  0
LTYPE
  2
line_font56
 70
    64
  3
線種56
 72
    65
 73
2
 40
141.796875
 49
113.4375
49
-28.359375
  0
LTYPE
  2
line_font57
 70
    64
  3
線種57
 72
    65
 73
4
 40
349.765625
 49
226.875
49
-28.359375
 49
66.171875
49
-28.359375
  0
LTYPE
  2
line_font58
 70
    64
  3
線種58
 72
    65
 73
2
 40
33.0859375
 49
4.7265625
49
-28.359375
  0
LTYPE
  2
line_font59
 70
    64
  3
線種59
 72
    65
 73
4
 40
206.25
 49
128.90625
49
-25.78125
 49
25.78125
49
-25.78125
  0
LTYPE
  2
line_font60
 70
    64
  3
線種60
 72
    65
 73
2
 40
51.5625
 49
38.671875
49
-12.890625
  0
LTYPE
  2
line_font61
 70
    64
  3
線種61
 72
    65
 73
6
 40
206.25
 49
103.125
49
-25.78125
 49
12.890625
49
-25.78125
 49
12.890625
49
-25.78125
  0
LTYPE
  2
line_font62
 70
    64
  3
線種62
 72
    65
 73
4
 40
47.09375
 49
41.25
49
-2.0625
 49
1.71875
49
-2.0625
  0
ENDTAB
  0
TABLE
  2
LAYER
 70
    16
  0
LAYER
  2
0
 70
     0
 62
     7
  6
CONTINUOUS
  0
LAYER
  2
0-1
 70
     0
 62
     7
  6
CONTINUOUS
  0
LAYER
  2
2
 70
     0
 62
     7
  6
CONTINUOUS
  0
LAYER
  2
シ__ト2
 70
     0
 62
     7
  6
CONTINUOUS
  0
LAYER
  2
シ__ト3
 70
     0
 62
     7
  6
CONTINUOUS
  0
LAYER
  2
シ__ト4
 70
     0
 62
     7
  6
CONTINUOUS
  0
LAYER
  2
シ__ト5
 70
     0
 62
     7
  6
CONTINUOUS
  0
LAYER
  2
シ__ト6
 70
     0
 62
     7
  6
CONTINUOUS
  0
LAYER
  2
シ__ト7
 70
     0
 62
     7
  6
CONTINUOUS
  0
LAYER
  2
シ__ト8
 70
     0
 62
     7
  6
CONTINUOUS
  0
LAYER
  2
シ__ト9
 70
     0
 62
     7
  6
CONTINUOUS
  0
LAYER
  2
シ__ト10
 70
     0
 62
     7
  6
CONTINUOUS
  0
LAYER
  2
シ__ト11
 70
     0
 62
     7
  6
CONTINUOUS
  0
LAYER
  2
シ__ト12
 70
     0
 62
     7
  6
CONTINUOUS
  0
LAYER
  2
シ__ト13
 70
     0
 62
     7
  6
CONTINUOUS
  0
LAYER
  2
シ__ト14
 70
     0
 62
     7
  6
CONTINUOUS
  0
LAYER
  2
シ__ト15
 70
     0
 62
     7
  6
CONTINUOUS
  0
LAYER
  2
UL10
 70
     0
 62
     7
  6
CONTINUOUS
  0
LAYER
  2
シ__ト17
 70
     0
 62
     7
  6
CONTINUOUS
  0
LAYER
  2
シ__ト18
 70
     0
 62
     7
  6
CONTINUOUS
  0
LAYER
  2
シ__ト19
 70
     0
 62
     7
  6
CONTINUOUS
  0
LAYER
  2
シ__ト20
 70
     0
 62
     7
  6
CONTINUOUS
  0
LAYER
  2
シ__ト21
 70
     0
 62
     7
  6
CONTINUOUS
  0
LAYER
  2
シ__ト22
 70
     0
 62
     7
  6
CONTINUOUS
  0
LAYER
  2
シ__ト23
 70
     0
 62
     7
  6
CONTINUOUS
  0
LAYER
  2
シ__ト24
 70
     0
 62
     7
  6
CONTINUOUS
  0
LAYER
  2
シ__ト25
 70
     0
 62
     7
  6
CONTINUOUS
  0
LAYER
  2
シ__ト26
 70
     0
 62
     7
  6
CONTINUOUS
  0
LAYER
  2
シ__ト27
 70
     0
 62
     7
  6
CONTINUOUS
  0
LAYER
  2
シ__ト28
 70
     0
 62
     7
  6
CONTINUOUS
  0
LAYER
  2
シ__ト29
 70
     0
 62
     7
  6
CONTINUOUS
  0
LAYER
  2
シ__ト30
 70
     0
 62
     7
  6
CONTINUOUS
  0
LAYER
  2
シ__ト31
 70
     0
 62
     7
  6
CONTINUOUS
  0
LAYER
  2
UL11
 70
     0
 62
     7
  6
CONTINUOUS
  0
LAYER
  2
シ__ト33
 70
     0
 62
     7
  6
CONTINUOUS
  0
LAYER
  2
シ__ト34
 70
     0
 62
     7
  6
CONTINUOUS
  0
LAYER
  2
シ__ト35
 70
     0
 62
     7
  6
CONTINUOUS
  0
LAYER
  2
シ__ト36
 70
     0
 62
     7
  6
CONTINUOUS
  0
LAYER
  2
シ__ト37
 70
     0
 62
     7
  6
CONTINUOUS
  0
LAYER
  2
シ__ト38
 70
     0
 62
     7
  6
CONTINUOUS
  0
LAYER
  2
シ__ト39
 70
     0
 62
     7
  6
CONTINUOUS
  0
LAYER
  2
シ__ト40
 70
     0
 62
     7
  6
CONTINUOUS
  0
LAYER
  2
シ__ト41
 70
     0
 62
     7
  6
CONTINUOUS
  0
LAYER
  2
シ__ト42
 70
     0
 62
     7
  6
CONTINUOUS
  0
LAYER
  2
シ__ト43
 70
     0
 62
     7
  6
CONTINUOUS
  0
LAYER
  2
シ__ト44
 70
     0
 62
     7
  6
CONTINUOUS
  0
LAYER
  2
シ__ト45
 70
     0
 62
     7
  6
CONTINUOUS
  0
LAYER
  2
シ__ト46
 70
     0
 62
     7
  6
CONTINUOUS
  0
LAYER
  2
シ__ト47
 70
     0
 62
     7
  6
CONTINUOUS
  0
LAYER
  2
UL12
 70
     0
 62
     7
  6
CONTINUOUS
  0
LAYER
  2
シ__ト49
 70
     0
 62
     7
  6
CONTINUOUS
  0
LAYER
  2
シ__ト50
 70
     0
 62
     7
  6
CONTINUOUS
  0
LAYER
  2
シ__ト51
 70
     0
 62
     7
  6
CONTINUOUS
  0
LAYER
  2
シ__ト52
 70
     0
 62
     7
  6
CONTINUOUS
  0
LAYER
  2
シ__ト53
 70
     0
 62
     7
  6
CONTINUOUS
  0
LAYER
  2
シ__ト54
 70
     0
 62
     7
  6
CONTINUOUS
  0
LAYER
  2
シ__ト55
 70
     0
 62
     7
  6
CONTINUOUS
  0
LAYER
  2
シ__ト56
 70
     0
 62
     7
  6
CONTINUOUS
  0
LAYER
  2
シ__ト57
 70
     0
 62
     7
  6
CONTINUOUS
  0
LAYER
  2
シ__ト58
 70
     0
 62
     7
  6
CONTINUOUS
  0
LAYER
  2
シ__ト59
 70
     0
 62
     7
  6
CONTINUOUS
  0
LAYER
  2
シ__ト60
 70
     0
 62
     7
  6
CONTINUOUS
  0
LAYER
  2
シ__ト61
 70
     0
 62
     7
  6
CONTINUOUS
  0
LAYER
  2
シ__ト62
 70
     0
 62
     7
  6
CONTINUOUS
  0
LAYER
  2
シ__ト63
 70
     0
 62
     7
  6
CONTINUOUS
  0
LAYER
  2
DEFPOINTS
 70
     0
 62
     7
  6
CONTINUOUS
  0
LAYER
  2
シ__ト65
 70
     0
 62
     7
  6
CONTINUOUS
  0
LAYER
  2
シ__ト66
 70
     0
 62
     7
  6
CONTINUOUS
  0
LAYER
  2
シ__ト67
 70
     0
 62
     7
  6
CONTINUOUS
  0
LAYER
  2
シ__ト68
 70
     0
 62
     7
  6
CONTINUOUS
  0
LAYER
  2
シ__ト69
 70
     0
 62
     7
  6
CONTINUOUS
  0
LAYER
  2
シ__ト70
 70
     0
 62
     7
  6
CONTINUOUS
  0
LAYER
  2
シ__ト71
 70
     0
 62
     7
  6
CONTINUOUS
  0
LAYER
  2
シ__ト72
 70
     0
 62
     7
  6
CONTINUOUS
  0
LAYER
  2
シ__ト73
 70
     0
 62
     7
  6
CONTINUOUS
  0
LAYER
  2
シ__ト74
 70
     0
 62
     7
  6
CONTINUOUS
  0
LAYER
  2
シ__ト75
 70
     0
 62
     7
  6
CONTINUOUS
  0
LAYER
  2
シ__ト76
 70
     0
 62
     7
  6
CONTINUOUS
  0
LAYER
  2
シ__ト77
 70
     0
 62
     7
  6
CONTINUOUS
  0
LAYER
  2
シ__ト78
 70
     0
 62
     7
  6
CONTINUOUS
  0
LAYER
  2
シ__ト79
 70
     0
 62
     7
  6
CONTINUOUS
  0
LAYER
  2
シ__ト80
 70
     0
 62
     7
  6
CONTINUOUS
  0
LAYER
  2
シ__ト81
 70
     0
 62
     7
  6
CONTINUOUS
  0
LAYER
  2
SC
 70
     0
 62
     7
  6
CONTINUOUS
  0
LAYER
  2
シ__ト83
 70
     0
 62
     7
  6
CONTINUOUS
  0
LAYER
  2
シ__ト84
 70
     0
 62
     7
  6
CONTINUOUS
  0
LAYER
  2
シ__ト85
 70
     0
 62
     7
  6
CONTINUOUS
  0
LAYER
  2
シ__ト86
 70
     0
 62
     7
  6
CONTINUOUS
  0
LAYER
  2
シ__ト87
 70
     0
 62
     7
  6
CONTINUOUS
  0
LAYER
  2
シ__ト88
 70
     0
 62
     7
  6
CONTINUOUS
  0
LAYER
  2
シ__ト89
 70
     0
 62
     7
  6
CONTINUOUS
  0
LAYER
  2
シ__ト90
 70
     0
 62
     7
  6
CONTINUOUS
  0
LAYER
  2
シ__ト91
 70
     0
 62
     7
  6
CONTINUOUS
  0
LAYER
  2
シ__ト92
 70
     0
 62
     7
  6
CONTINUOUS
  0
LAYER
  2
シ__ト93
 70
     0
 62
     7
  6
CONTINUOUS
  0
LAYER
  2
シ__ト94
 70
     0
 62
     7
  6
CONTINUOUS
  0
LAYER
  2
シ__ト95
 70
     0
 62
     7
  6
CONTINUOUS
  0
LAYER
  2
シ__ト96
 70
     0
 62
     7
  6
CONTINUOUS
  0
LAYER
  2
シ__ト97
 70
     0
 62
     7
  6
CONTINUOUS
  0
LAYER
  2
シ__ト98
 70
     0
 62
     7
  6
CONTINUOUS
  0
LAYER
  2
DEL
 70
     0
 62
     7
  6
CONTINUOUS
  0
LAYER
  2
シ__ト100
 70
     0
 62
     7
  6
CONTINUOUS
  0
LAYER
  2
シ__ト101
 70
     0
 62
     7
  6
CONTINUOUS
  0
LAYER
  2
シ__ト102
 70
     0
 62
     7
  6
CONTINUOUS
  0
LAYER
  2
シ__ト103
 70
     0
 62
     7
  6
CONTINUOUS
  0
LAYER
  2
シ__ト104
 70
     0
 62
     7
  6
CONTINUOUS
  0
LAYER
  2
シ__ト105
 70
     0
 62
     7
  6
CONTINUOUS
  0
LAYER
  2
シ__ト106
 70
     0
 62
     7
  6
CONTINUOUS
  0
LAYER
  2
シ__ト107
 70
     0
 62
     7
  6
CONTINUOUS
  0
LAYER
  2
シ__ト108
 70
     0
 62
     7
  6
CONTINUOUS
  0
LAYER
  2
シ__ト109
 70
     0
 62
     7
  6
CONTINUOUS
  0
LAYER
  2
シ__ト110
 70
     0
 62
     7
  6
CONTINUOUS
  0
LAYER
  2
シ__ト111
 70
     0
 62
     7
  6
CONTINUOUS
  0
LAYER
  2
シ__ト112
 70
     0
 62
     7
  6
CONTINUOUS
  0
LAYER
  2
シ__ト113
 70
     0
 62
     7
  6
CONTINUOUS
  0
LAYER
  2
シ__ト114
 70
     0
 62
     7
  6
CONTINUOUS
  0
LAYER
  2
シ__ト115
 70
     0
 62
     7
  6
CONTINUOUS
  0
LAYER
  2
シ__ト116
 70
     0
 62
     7
  6
CONTINUOUS
  0
LAYER
  2
シ__ト117
 70
     0
 62
     7
  6
CONTINUOUS
  0
LAYER
  2
シ__ト118
 70
     0
 62
     7
  6
CONTINUOUS
  0
LAYER
  2
シ__ト119
 70
     0
 62
     7
  6
CONTINUOUS
  0
LAYER
  2
シ__ト120
 70
     0
 62
     7
  6
CONTINUOUS
  0
LAYER
  2
シ__ト121
 70
     0
 62
     7
  6
CONTINUOUS
  0
LAYER
  2
シ__ト122
 70
     0
 62
     7
  6
CONTINUOUS
  0
LAYER
  2
シ__ト123
 70
     0
 62
     7
  6
CONTINUOUS
  0
LAYER
  2
シ__ト124
 70
     0
 62
     7
  6
CONTINUOUS
  0
LAYER
  2
シ__ト125
 70
     0
 62
     7
  6
CONTINUOUS
  0
LAYER
  2
シ__ト126
 70
     0
 62
     7
  6
CONTINUOUS
  0
LAYER
  2
シ__ト127
 70
     0
 62
     7
  6
CONTINUOUS
  0
LAYER
  2
シ__ト128
 70
     0
 62
     7
  6
CONTINUOUS
  0
LAYER
  2
シ__ト129
 70
     0
 62
     7
  6
CONTINUOUS
  0
LAYER
  2
シ__ト130
 70
     0
 62
     7
  6
CONTINUOUS
  0
LAYER
  2
シ__ト131
 70
     0
 62
     7
  6
CONTINUOUS
  0
LAYER
  2
シ__ト132
 70
     0
 62
     7
  6
CONTINUOUS
  0
LAYER
  2
シ__ト133
 70
     0
 62
     7
  6
CONTINUOUS
  0
LAYER
  2
シ__ト134
 70
     0
 62
     7
  6
CONTINUOUS
  0
LAYER
  2
シ__ト135
 70
     0
 62
     7
  6
CONTINUOUS
  0
LAYER
  2
シ__ト136
 70
     0
 62
     7
  6
CONTINUOUS
  0
LAYER
  2
シ__ト137
 70
     0
 62
     7
  6
CONTINUOUS
  0
LAYER
  2
シ__ト138
 70
     0
 62
     7
  6
CONTINUOUS
  0
LAYER
  2
シ__ト139
 70
     0
 62
     7
  6
CONTINUOUS
  0
LAYER
  2
シ__ト140
 70
     0
 62
     7
  6
CONTINUOUS
  0
LAYER
  2
シ__ト141
 70
     0
 62
     7
  6
CONTINUOUS
  0
LAYER
  2
シ__ト142
 70
     0
 62
     7
  6
CONTINUOUS
  0
LAYER
  2
シ__ト143
 70
     0
 62
     7
  6
CONTINUOUS
  0
LAYER
  2
シ__ト144
 70
     0
 62
     7
  6
CONTINUOUS
  0
LAYER
  2
シ__ト145
 70
     0
 62
     7
  6
CONTINUOUS
  0
LAYER
  2
シ__ト146
 70
     0
 62
     7
  6
CONTINUOUS
  0
LAYER
  2
シ__ト147
 70
     0
 62
     7
  6
CONTINUOUS
  0
LAYER
  2
シ__ト148
 70
     0
 62
     7
  6
CONTINUOUS
  0
LAYER
  2
シ__ト149
 70
     0
 62
     7
  6
CONTINUOUS
  0
LAYER
  2
シ__ト150
 70
     0
 62
     7
  6
CONTINUOUS
  0
LAYER
  2
シ__ト151
 70
     0
 62
     7
  6
CONTINUOUS
  0
LAYER
  2
シ__ト152
 70
     0
 62
     7
  6
CONTINUOUS
  0
LAYER
  2
シ__ト153
 70
     0
 62
     7
  6
CONTINUOUS
  0
LAYER
  2
シ__ト154
 70
     0
 62
     7
  6
CONTINUOUS
  0
LAYER
  2
シ__ト155
 70
     0
 62
     7
  6
CONTINUOUS
  0
LAYER
  2
シ__ト156
 70
     0
 62
     7
  6
CONTINUOUS
  0
LAYER
  2
シ__ト157
 70
     0
 62
     7
  6
CONTINUOUS
  0
LAYER
  2
シ__ト158
 70
     0
 62
     7
  6
CONTINUOUS
  0
LAYER
  2
シ__ト159
 70
     0
 62
     7
  6
CONTINUOUS
  0
LAYER
  2
シ__ト160
 70
     0
 62
     7
  6
CONTINUOUS
  0
LAYER
  2
シ__ト161
 70
     0
 62
     7
  6
CONTINUOUS
  0
LAYER
  2
シ__ト162
 70
     0
 62
     7
  6
CONTINUOUS
  0
LAYER
  2
シ__ト163
 70
     0
 62
     7
  6
CONTINUOUS
  0
LAYER
  2
シ__ト164
 70
     0
 62
     7
  6
CONTINUOUS
  0
LAYER
  2
シ__ト165
 70
     0
 62
     7
  6
CONTINUOUS
  0
LAYER
  2
シ__ト166
 70
     0
 62
     7
  6
CONTINUOUS
  0
LAYER
  2
シ__ト167
 70
     0
 62
     7
  6
CONTINUOUS
  0
LAYER
  2
シ__ト168
 70
     0
 62
     7
  6
CONTINUOUS
  0
LAYER
  2
シ__ト169
 70
     0
 62
     7
  6
CONTINUOUS
  0
LAYER
  2
シ__ト170
 70
     0
 62
     7
  6
CONTINUOUS
  0
LAYER
  2
シ__ト171
 70
     0
 62
     7
  6
CONTINUOUS
  0
LAYER
  2
シ__ト172
 70
     0
 62
     7
  6
CONTINUOUS
  0
LAYER
  2
シ__ト173
 70
     0
 62
     7
  6
CONTINUOUS
  0
LAYER
  2
シ__ト174
 70
     0
 62
     7
  6
CONTINUOUS
  0
LAYER
  2
シ__ト175
 70
     0
 62
     7
  6
CONTINUOUS
  0
LAYER
  2
シ__ト176
 70
     0
 62
     7
  6
CONTINUOUS
  0
LAYER
  2
シ__ト177
 70
     0
 62
     7
  6
CONTINUOUS
  0
LAYER
  2
シ__ト178
 70
     0
 62
     7
  6
CONTINUOUS
  0
LAYER
  2
シ__ト179
 70
     0
 62
     7
  6
CONTINUOUS
  0
LAYER
  2
シ__ト180
 70
     0
 62
     7
  6
CONTINUOUS
  0
LAYER
  2
シ__ト181
 70
     0
 62
     7
  6
CONTINUOUS
  0
LAYER
  2
シ__ト182
 70
     0
 62
     7
  6
CONTINUOUS
  0
LAYER
  2
シ__ト183
 70
     0
 62
     7
  6
CONTINUOUS
  0
LAYER
  2
シ__ト184
 70
     0
 62
     7
  6
CONTINUOUS
  0
LAYER
  2
シ__ト185
 70
     0
 62
     7
  6
CONTINUOUS
  0
LAYER
  2
シ__ト186
 70
     0
 62
     7
  6
CONTINUOUS
  0
LAYER
  2
シ__ト187
 70
     0
 62
     7
  6
CONTINUOUS
  0
LAYER
  2
シ__ト188
 70
     0
 62
     7
  6
CONTINUOUS
  0
LAYER
  2
シ__ト189
 70
     0
 62
     7
  6
CONTINUOUS
  0
LAYER
  2
シ__ト190
 70
     0
 62
     7
  6
CONTINUOUS
  0
LAYER
  2
シ__ト191
 70
     0
 62
     7
  6
CONTINUOUS
  0
LAYER
  2
シ__ト192
 70
     0
 62
     7
  6
CONTINUOUS
  0
LAYER
  2
シ__ト193
 70
     0
 62
     7
  6
CONTINUOUS
  0
LAYER
  2
シ__ト194
 70
     0
 62
     7
  6
CONTINUOUS
  0
LAYER
  2
シ__ト195
 70
     0
 62
     7
  6
CONTINUOUS
  0
LAYER
  2
シ__ト196
 70
     0
 62
     7
  6
CONTINUOUS
  0
LAYER
  2
シ__ト197
 70
     0
 62
     7
  6
CONTINUOUS
  0
LAYER
  2
シ__ト198
 70
     0
 62
     7
  6
CONTINUOUS
  0
LAYER
  2
シ__ト199
 70
     0
 62
     7
  6
CONTINUOUS
  0
LAYER
  2
シ__ト200
 70
     0
 62
     7
  6
CONTINUOUS
  0
LAYER
  2
シ__ト201
 70
     0
 62
     7
  6
CONTINUOUS
  0
LAYER
  2
シ__ト202
 70
     0
 62
     7
  6
CONTINUOUS
  0
LAYER
  2
シ__ト203
 70
     0
 62
     7
  6
CONTINUOUS
  0
LAYER
  2
シ__ト204
 70
     0
 62
     7
  6
CONTINUOUS
  0
LAYER
  2
シ__ト205
 70
     0
 62
     7
  6
CONTINUOUS
  0
LAYER
  2
シ__ト206
 70
     0
 62
     7
  6
CONTINUOUS
  0
LAYER
  2
シ__ト207
 70
     0
 62
     7
  6
CONTINUOUS
  0
LAYER
  2
シ__ト208
 70
     0
 62
     7
  6
CONTINUOUS
  0
LAYER
  2
シ__ト209
 70
     0
 62
     7
  6
CONTINUOUS
  0
LAYER
  2
シ__ト210
 70
     0
 62
     7
  6
CONTINUOUS
  0
LAYER
  2
シ__ト211
 70
     0
 62
     7
  6
CONTINUOUS
  0
LAYER
  2
シ__ト212
 70
     0
 62
     7
  6
CONTINUOUS
  0
LAYER
  2
シ__ト213
 70
     0
 62
     7
  6
CONTINUOUS
  0
LAYER
  2
シ__ト214
 70
     0
 62
     7
  6
CONTINUOUS
  0
LAYER
  2
シ__ト215
 70
     0
 62
     7
  6
CONTINUOUS
  0
LAYER
  2
シ__ト216
 70
     0
 62
     7
  6
CONTINUOUS
  0
LAYER
  2
シ__ト217
 70
     0
 62
     7
  6
CONTINUOUS
  0
LAYER
  2
シ__ト218
 70
     0
 62
     7
  6
CONTINUOUS
  0
LAYER
  2
シ__ト219
 70
     0
 62
     7
  6
CONTINUOUS
  0
LAYER
  2
シ__ト220
 70
     0
 62
     7
  6
CONTINUOUS
  0
LAYER
  2
シ__ト221
 70
     0
 62
     7
  6
CONTINUOUS
  0
LAYER
  2
シ__ト222
 70
     0
 62
     7
  6
CONTINUOUS
  0
LAYER
  2
シ__ト223
 70
     0
 62
     7
  6
CONTINUOUS
  0
LAYER
  2
シ__ト224
 70
     0
 62
     7
  6
CONTINUOUS
  0
LAYER
  2
シ__ト225
 70
     0
 62
     7
  6
CONTINUOUS
  0
LAYER
  2
シ__ト226
 70
     0
 62
     7
  6
CONTINUOUS
  0
LAYER
  2
シ__ト227
 70
     0
 62
     7
  6
CONTINUOUS
  0
LAYER
  2
シ__ト228
 70
     0
 62
     7
  6
CONTINUOUS
  0
LAYER
  2
シ__ト229
 70
     0
 62
     7
  6
CONTINUOUS
  0
LAYER
  2
シ__ト230
 70
     0
 62
     7
  6
CONTINUOUS
  0
LAYER
  2
シ__ト231
 70
     0
 62
     7
  6
CONTINUOUS
  0
LAYER
  2
シ__ト232
 70
     0
 62
     7
  6
CONTINUOUS
  0
LAYER
  2
シ__ト233
 70
     0
 62
     7
  6
CONTINUOUS
  0
LAYER
  2
シ__ト234
 70
     0
 62
     7
  6
CONTINUOUS
  0
LAYER
  2
シ__ト235
 70
     0
 62
     7
  6
CONTINUOUS
  0
LAYER
  2
シ__ト236
 70
     0
 62
     7
  6
CONTINUOUS
  0
LAYER
  2
シ__ト237
 70
     0
 62
     7
  6
CONTINUOUS
  0
LAYER
  2
シ__ト238
 70
     0
 62
     7
  6
CONTINUOUS
  0
LAYER
  2
シ__ト239
 70
     0
 62
     7
  6
CONTINUOUS
  0
LAYER
  2
シ__ト240
 70
     0
 62
     7
  6
CONTINUOUS
  0
LAYER
  2
シ__ト241
 70
     0
 62
     7
  6
CONTINUOUS
  0
LAYER
  2
シ__ト242
 70
     0
 62
     7
  6
CONTINUOUS
  0
LAYER
  2
シ__ト243
 70
     0
 62
     7
  6
CONTINUOUS
  0
LAYER
  2
シ__ト244
 70
     0
 62
     7
  6
CONTINUOUS
  0
LAYER
  2
シ__ト245
 70
     0
 62
     7
  6
CONTINUOUS
  0
LAYER
  2
シ__ト246
 70
     0
 62
     7
  6
CONTINUOUS
  0
LAYER
  2
シ__ト247
 70
     0
 62
     7
  6
CONTINUOUS
  0
LAYER
  2
シ__ト248
 70
     0
 62
     7
  6
CONTINUOUS
  0
LAYER
  2
シ__ト249
 70
     0
 62
     7
  6
CONTINUOUS
  0
LAYER
  2
シ__ト250
 70
     0
 62
     7
  6
CONTINUOUS
  0
LAYER
  2
シ__ト251
 70
     0
 62
     7
  6
CONTINUOUS
  0
LAYER
  2
シ__ト252
 70
     0
 62
     7
  6
CONTINUOUS
  0
LAYER
  2
シ__ト253
 70
     0
 62
     7
  6
CONTINUOUS
  0
LAYER
  2
シ__ト254
 70
     0
 62
     7
  6
CONTINUOUS
  0
LAYER
  2
シ__ト255
 70
     0
 62
     7
  6
CONTINUOUS
  0
ENDTAB
  0
TABLE
  2
STYLE
 70
     2
  0
STYLE
  2
STANDARD
 70
     0
 40
0.0
 41
1.0
 50
0.0
 71
     0
 42
0.2
  3
TXT
  4

  0
STYLE
  2
KANJI
 70
     0
 40
0.0
 41
1.0
 50
0.0
 71
     0
 42
0.2
  3
TXT
  4
BIGFONT
  0
STYLE
  2
KANJIT
 70
     4
 40
0.0
 41
1.0
 50
0.0
 71
     0
 42
0.2
  3
TXT
  4
BIGFONT
  0
ENDTAB
  0
TABLE
  2
VIEW
 70
     0
  0
ENDTAB
  0
ENDSEC
  0
SECTION
  2
BLOCKS
  0
BLOCK
  8
2
  2
BV_ATTRIBUTE1
 70
    64
 10
0.0
 20
0.0
 30
0.0
  0
LINE
  8
2
 62
     4
  6
continuous
 10
0
 20
0
 11
-0.26047226650037913
 21
1.4772116295183082
  0
LINE
  8
2
 62
     4
  6
continuous
 10
0
 20
0
 11
0.26047226650037203
 21
1.4772116295183082
  0
LINE
  8
2
 62
     4
  6
continuous
 10
0
 20
4.1666666666666927
 11
0.26047226650044308
 21
2.6894550371483916
  0
LINE
  8
2
 62
     4
  6
continuous
 10
0
 20
4.1666666666666927
 11
-0.26047226650044308
 21
2.6894550371483916
  0
LINE
  8
2
 62
     4
  6
continuous
 10
0
 20
0
 11
0
 21
4.1666666666666927
  0
TEXT
  8
2
 62
     7
 10
-0.59999999999999432
 20
0.083333333333342807
 40
2.4096385542168677
 41
1
  1
５０
  7
KANJI
 50
90
  72
    5
  11
-0.59999999999999432
  21
4.0833333333333428
  0
ENDBLK
  8
0
  0
BLOCK
  8
2
  2
BV_ATTRIBUTE2
 70
    64
 10
0.0
 20
0.0
 30
0.0
  0
LINE
  8
2
 62
     4
  6
continuous
 10
0
 20
0
 11
-0.26047226650040045
 21
1.4772116295183082
  0
LINE
  8
2
 62
     4
  6
continuous
 10
0
 20
0
 11
0.26047226650039335
 21
1.4772116295183082
  0
LINE
  8
2
 62
     4
  6
continuous
 10
0
 20
12.499999999999972
 11
0.26047226650044308
 21
11.02278837048167
  0
LINE
  8
2
 62
     4
  6
continuous
 10
0
 20
12.499999999999972
 11
-0.26047226650044308
 21
11.02278837048167
  0
LINE
  8
2
 62
     4
  6
continuous
 10
0
 20
0
 11
0
 21
12.499999999999972
  0
TEXT
  8
2
 62
     7
 10
-0.59999999999999432
 20
3.2499999999999858
 40
2.4096385542168677
 41
1
  1
１５０
  7
KANJI
 50
90
  72
    5
  11
-0.59999999999999432
  21
9.2499999999999858
  0
ENDBLK
  8
0
  0
BLOCK
  8
2
  2
BV_ATTRIBUTE3
 70
    64
 10
0.0
 20
0.0
 30
0.0
  0
LINE
  8
2
 62
     4
  6
continuous
 10
0
 20
0
 11
0
 21
3.7500000000000355
  0
TEXT
  8
2
 62
     7
 10
-0.59999999999999432
 20
-0.12499999999998579
 40
2.4096385542168677
 41
1
  1
４５
  7
KANJI
 50
90
  72
    5
  11
-0.59999999999999432
  21
3.8750000000000142
  0
ENDBLK
  8
0
  0
BLOCK
  8
2
  2
BV_ATTRIBUTE4
 70
    64
 10
0.0
 20
0.0
 30
0.0
  0
LINE
  8
2
 62
     4
  6
continuous
 10
0
 20
0
 11
-0.2604722665003294
 21
1.4772116295183366
  0
LINE
  8
2
 62
     4
  6
continuous
 10
0
 20
0
 11
0.2604722665003294
 21
1.4772116295183366
  0
LINE
  8
2
 62
     4
  6
continuous
 10
0
 20
5.8333333333333712
 11
0.26047226650042887
 21
4.356121703815063
  0
LINE
  8
2
 62
     4
  6
continuous
 10
0
 20
5.8333333333333712
 11
-0.26047226650043598
 21
4.356121703815063
  0
LINE
  8
2
 62
     4
  6
continuous
 10
0
 20
0
 11
0
 21
5.8333333333333712
  0
TEXT
  8
2
 62
     7
 10
-0.59999999999999432
 20
0.91666666666668561
 40
2.4096385542168677
 41
1
  1
７０
  7
KANJI
 50
90
  72
    5
  11
-0.59999999999999432
  21
4.9166666666666856
  0
ENDBLK
  8
0
  0
BLOCK
  8
2
  2
BV_ATTRIBUTE5
 70
    64
 10
0.0
 20
0.0
 30
0.0
  0
LINE
  8
2
 62
     4
  6
continuous
 10
0
 20
0
 11
1.4772116295183366
 21
0.26047226650018729
  0
LINE
  8
2
 62
     4
  6
continuous
 10
0
 20
0
 11
1.4772116295183366
 21
-0.26047226650018729
  0
LINE
  8
2
 62
     4
  6
continuous
 10
8.3333333333332291
 20
0
 11
6.8561217038149209
 21
-0.26047226650038624
  0
LINE
  8
2
 62
     4
  6
continuous
 10
8.3333333333332291
 20
0
 11
6.8561217038149209
 21
0.26047226650037203
  0
LINE
  8
2
 62
     4
  6
continuous
 10
0
 20
0
 11
8.3333333333332291
 21
0
  0
TEXT
  8
2
 62
     7
 10
1.1666666666666146
 20
0.59999999999999432
 40
2.4096385542168677
 41
1
  1
１００
  7
KANJI
 50
0
  72
    5
  11
7.1666666666666146
  21
0.59999999999999432
  0
ENDBLK
  8
0
  0
BLOCK
  8
2
  2
BV_ATTRIBUTE6
 70
    64
 10
0.0
 20
0.0
 30
0.0
  0
LINE
  8
2
 62
     4
  6
continuous
 10
0
 20
0
 11
1.4772116295182798
 21
0.26047226650049993
  0
LINE
  8
2
 62
     4
  6
continuous
 10
0
 20
0
 11
1.4772116295182798
 21
-0.26047226650051414
  0
LINE
  8
2
 62
     4
  6
continuous
 10
5.416666666666714
 20
0
 11
3.9394550371484058
 21
-0.26047226650047151
  0
LINE
  8
2
 62
     4
  6
continuous
 10
5.416666666666714
 20
0
 11
3.9394550371484058
 21
0.26047226650045729
  0
LINE
  8
2
 62
     4
  6
continuous
 10
0
 20
0
 11
5.416666666666714
 21
0
  0
TEXT
  8
2
 62
     7
 10
0.70833333333335702
 20
0.59999999999999432
 40
2.4096385542168677
 41
1
  1
６５
  7
KANJI
 50
0
  72
    5
  11
4.708333333333357
  21
0.59999999999999432
  0
ENDBLK
  8
0
  0
BLOCK
  8
2
  2
BV_ATTRIBUTE7
 70
    64
 10
0.0
 20
0.0
 30
0.0
  0
LINE
  8
2
 62
     4
  6
continuous
 10
0
 20
0
 11
1.4772116295182229
 21
0.26047226650084099
  0
LINE
  8
2
 62
     4
  6
continuous
 10
0
 20
0
 11
1.4772116295182229
 21
-0.26047226650084099
  0
LINE
  8
2
 62
     4
  6
continuous
 10
10.000000000000028
 20
0
 11
8.5227883704816918
 21
-0.26047226650021571
  0
LINE
  8
2
 62
     4
  6
continuous
 10
10.000000000000028
 20
0
 11
8.5227883704816918
 21
0.26047226650021571
  0
LINE
  8
2
 62
     4
  6
continuous
 10
0
 20
0
 11
10.000000000000028
 21
0
  0
TEXT
  8
2
 62
     7
 10
2.0000000000000142
 20
0.59999999999999432
 40
2.4096385542168677
 41
1
  1
１２０
  7
KANJI
 50
0
  72
    5
  11
8.0000000000000142
  21
0.59999999999999432
  0
ENDBLK
  8
0
  0
BLOCK
  8
2
  2
BV_ATTRIBUTE8
 70
    64
 10
0.0
 20
0.0
 30
0.0
  0
LINE
  8
2
 62
     4
  6
continuous
 10
0
 20
0
 11
1.4772116295184787
 21
0.26047226649950517
  0
LINE
  8
2
 62
     4
  6
continuous
 10
0
 20
0
 11
1.4772116295184787
 21
-0.26047226649953359
  0
LINE
  8
2
 62
     4
  6
continuous
 10
15.833333333332575
 20
0
 11
14.356121703814381
 21
-0.26047226650109678
  0
LINE
  8
2
 62
     4
  6
continuous
 10
15.833333333332575
 20
0
 11
14.356121703814381
 21
0.26047226650106836
  0
LINE
  8
2
 62
     4
  6
continuous
 10
0
 20
0
 11
15.833333333332575
 21
0
  0
TEXT
  8
2
 62
     7
 10
4.9166666666662877
 20
0.59999999999999432
 40
2.4096385542168677
 41
1
  1
１９０
  7
KANJI
 50
0
  72
    5
  11
10.916666666666288
  21
0.59999999999999432
  0
ENDBLK
  8
0
  0
BLOCK
  8
2
  2
BV_ATTRIBUTE9
 70
    64
 10
0.0
 20
0.0
 30
0.0
  0
LINE
  8
2
 62
     4
  6
continuous
 10
0
 20
0
 11
1.4772116295184503
 21
0.26047226649970412
  0
LINE
  8
2
 62
     4
  6
continuous
 10
0
 20
0
 11
1.4772116295184503
 21
-0.26047226649968991
  0
LINE
  8
2
 62
     4
  6
continuous
 10
11.916666666665918
 20
0
 11
10.439455037147553
 21
-0.26047226650021571
  0
LINE
  8
2
 62
     4
  6
continuous
 10
11.916666666665918
 20
0
 11
10.439455037147553
 21
0.26047226650022992
  0
LINE
  8
2
 62
     4
  6
continuous
 10
0
 20
0
 11
11.916666666665918
 21
0
  0
TEXT
  8
2
 62
     7
 10
2.9583333333329733
 20
0.59999999999999432
 40
2.4096385542168677
 41
1
  1
１４３
  7
KANJI
 50
0
  72
    5
  11
8.9583333333329733
  21
0.59999999999999432
  0
ENDBLK
  8
0
  0
BLOCK
  8
2
  2
BV_ATTRIBUTE10
 70
    64
 10
0.0
 20
0.0
 30
0.0
  0
LINE
  8
2
 62
     4
  6
continuous
 10
0
 20
0
 11
1.4772116295181945
 21
0.26047226650108257
  0
LINE
  8
2
 62
     4
  6
continuous
 10
0
 20
0
 11
1.4772116295181945
 21
-0.26047226650108257
  0
LINE
  8
2
 62
     4
  6
continuous
 10
16.08333333333303
 20
0
 11
14.606121703814551
 21
-0.26047226649944832
  0
LINE
  8
2
 62
     4
  6
continuous
 10
16.08333333333303
 20
0
 11
14.606121703814551
 21
0.26047226649944832
  0
LINE
  8
2
 62
     4
  6
continuous
 10
0
 20
0
 11
16.08333333333303
 21
0
  0
TEXT
  8
2
 62
     7
 10
5.0416666666665151
 20
0.60000000000000853
 40
2.4096385542168677
 41
1
  1
１９３
  7
KANJI
 50
0
  72
    5
  11
11.041666666666515
  21
0.60000000000000853
  0
ENDBLK
  8
0
  0
BLOCK
  8
2
  2
BV_ATTRIBUTE11
 70
    64
 10
0.0
 20
0.0
 30
0.0
  0
LINE
  8
2
 62
     4
  6
continuous
 10
0
 20
0
 11
-0.26047226650061361
 21
1.4772116295182656
  0
LINE
  8
2
 62
     4
  6
continuous
 10
0
 20
0
 11
0.26047226650058519
 21
1.4772116295182656
  0
LINE
  8
2
 62
     4
  6
continuous
 10
0
 20
8.3333333333333286
 11
0.26047226649998834
 21
6.8561217038149493
  0
LINE
  8
2
 62
     4
  6
continuous
 10
0
 20
8.3333333333333286
 11
-0.26047226650001676
 21
6.8561217038149493
  0
LINE
  8
2
 62
     4
  6
continuous
 10
0
 20
0
 11
0
 21
8.3333333333333286
  0
TEXT
  8
2
 62
     7
 10
-0.59999999999999432
 20
1.1666666666666572
 40
2.4096385542168677
 41
1
  1
１００
  7
KANJI
 50
90
  72
    5
  11
-0.59999999999999432
  21
7.1666666666666572
  0
ENDBLK
  8
0
  0
BLOCK
  8
2
  2
BV_ATTRIBUTE12
 70
    64
 10
0.0
 20
0.0
 30
0.0
  0
LINE
  8
2
 62
     4
  6
continuous
 10
0
 20
0
 11
1.4772116295183082
 21
0.26047226650069888
  0
LINE
  8
2
 62
     4
  6
continuous
 10
0
 20
0
 11
1.4772116295183082
 21
-0.26047226650069888
  0
LINE
  8
2
 62
     4
  6
continuous
 10
8.3333333333333428
 20
0
 11
6.8561217038151767
 21
-0.26047226650118205
  0
LINE
  8
2
 62
     4
  6
continuous
 10
8.3333333333333428
 20
0
 11
6.8561217038151767
 21
0.26047226650119626
  0
LINE
  8
2
 62
     4
  6
continuous
 10
0
 20
0
 11
8.3333333333333428
 21
0
  0
TEXT
  8
2
 62
     7
 10
1.1666666666666856
 20
0.59999999999999432
 40
2.4096385542168677
 41
1
  1
１００
  7
KANJI
 50
0
  72
    5
  11
7.1666666666666856
  21
0.59999999999999432
  0
ENDBLK
  8
0
  0
BLOCK
  8
2
  2
BV_ATTRIBUTE13
 70
    64
 10
0.0
 20
0.0
 30
0.0
  0
LINE
  8
2
 62
     4
  6
continuous
 10
0
 20
0
 11
1.4772116295182514
 21
0.2604722665007273
  0
LINE
  8
2
 62
     4
  6
continuous
 10
0
 20
0
 11
1.4772116295182514
 21
-0.26047226650075572
  0
LINE
  8
2
 62
     4
  6
continuous
 10
15.833333333332575
 20
0
 11
14.356121703814182
 21
-0.26047226649987465
  0
LINE
  8
2
 62
     4
  6
continuous
 10
15.833333333332575
 20
0
 11
14.356121703814182
 21
0.26047226649984623
  0
LINE
  8
2
 62
     4
  6
continuous
 10
0
 20
0
 11
15.833333333332575
 21
0
  0
TEXT
  8
2
 62
     7
 10
4.9166666666662877
 20
0.59999999999999432
 40
2.4096385542168677
 41
1
  1
１９０
  7
KANJI
 50
0
  72
    5
  11
10.916666666666288
  21
0.59999999999999432
  0
ENDBLK
  8
0
  0
BLOCK
  8
2
  2
BV_ATTRIBUTE14
 70
    64
 10
0.0
 20
0.0
 30
0.0
  0
LINE
  8
2
 62
     4
  6
continuous
 10
0
 20
0
 11
1.4772116295183082
 21
0.26047226650038624
  0
LINE
  8
2
 62
     4
  6
continuous
 10
0
 20
0
 11
1.4772116295183082
 21
-0.26047226650040045
  0
LINE
  8
2
 62
     4
  6
continuous
 10
8.3333333333337407
 20
0
 11
6.8561217038153472
 21
-0.26047226649998834
  0
LINE
  8
2
 62
     4
  6
continuous
 10
8.3333333333337407
 20
0
 11
6.8561217038153472
 21
0.26047226649997413
  0
LINE
  8
2
 62
     4
  6
continuous
 10
0
 20
0
 11
8.3333333333337407
 21
0
  0
TEXT
  8
2
 62
     7
 10
1.1666666666668561
 20
0.59999999999999432
 40
2.4096385542168677
 41
1
  1
１００
  7
KANJI
 50
0
  72
    5
  11
7.1666666666668561
  21
0.59999999999999432
  0
ENDBLK
  8
0
  0
BLOCK
  8
2
  2
BV_ATTRIBUTE15
 70
    64
 10
0.0
 20
0.0
 30
0.0
  0
LINE
  8
2
 62
     4
  6
continuous
 10
0
 20
0
 11
1.4772116295183935
 21
0.26047226649991728
  0
LINE
  8
2
 62
     4
  6
continuous
 10
0
 20
0
 11
1.4772116295183935
 21
-0.26047226649993149
  0
LINE
  8
2
 62
     4
  6
continuous
 10
11.916666666665918
 20
0
 11
10.439455037147525
 21
-0.26047226650000255
  0
LINE
  8
2
 62
     4
  6
continuous
 10
11.916666666665918
 20
0
 11
10.439455037147525
 21
0.26047226649998834
  0
LINE
  8
2
 62
     4
  6
continuous
 10
0
 20
0
 11
11.916666666665918
 21
0
  0
TEXT
  8
2
 62
     7
 10
2.9583333333329733
 20
0.5999999999999801
 40
2.4096385542168677
 41
1
  1
１４３
  7
KANJI
 50
0
  72
    5
  11
8.9583333333329733
  21
0.5999999999999801
  0
ENDBLK
  8
0
  0
BLOCK
  8
2
  2
BV_ATTRIBUTE16
 70
    64
 10
0.0
 20
0.0
 30
0.0
  0
LINE
  8
2
 62
     4
  6
continuous
 10
0
 20
0
 11
1.4772116295183366
 21
0.26047226650022992
  0
LINE
  8
2
 62
     4
  6
continuous
 10
0
 20
0
 11
1.4772116295183366
 21
-0.26047226650021571
  0
LINE
  8
2
 62
     4
  6
continuous
 10
16.08333333333303
 20
0
 11
14.606121703814694
 21
-0.26047226650030098
  0
LINE
  8
2
 62
     4
  6
continuous
 10
16.08333333333303
 20
0
 11
14.606121703814694
 21
0.26047226650030098
  0
LINE
  8
2
 62
     4
  6
continuous
 10
0
 20
0
 11
16.08333333333303
 21
0
  0
TEXT
  8
2
 62
     7
 10
5.0416666666665151
 20
0.60000000000000853
 40
2.4096385542168677
 41
1
  1
１９３
  7
KANJI
 50
0
  72
    5
  11
11.041666666666515
  21
0.60000000000000853
  0
ENDBLK
  8
0
  0
BLOCK
  8
2
  2
BV_ATTRIBUTE17
 70
    64
 10
0.0
 20
0.0
 30
0.0
  0
LINE
  8
2
 62
     4
  6
continuous
 10
0
 20
0
 11
1.4772116295182798
 21
0.26047226650053545
  0
LINE
  8
2
 62
     4
  6
continuous
 10
0
 20
0
 11
1.4772116295182798
 21
-0.26047226650054256
  0
LINE
  8
2
 62
     4
  6
continuous
 10
4.1666666666709489
 20
0
 11
2.6894550371526407
 21
-0.26047226650048572
  0
LINE
  8
2
 62
     4
  6
continuous
 10
4.1666666666709489
 20
0
 11
2.6894550371526407
 21
0.26047226650047861
  0
LINE
  8
2
 62
     4
  6
continuous
 10
0
 20
0
 11
4.1666666666709489
 21
0
  0
TEXT
  8
2
 62
     7
 10
0.083333333335474435
 20
0.60000000000000142
 40
2.4096385542168677
 41
1
  1
５０
  7
KANJI
 50
0
  72
    5
  11
4.0833333333354744
  21
0.60000000000000142
  0
ENDBLK
  8
0
  0
BLOCK
  8
2
  2
BV_ATTRIBUTE18
 70
    64
 10
0.0
 20
0.0
 30
0.0
  0
LINE
  8
2
 62
     4
  6
continuous
 10
0
 20
0
 11
1.4772116295183082
 21
0.26047226650040045
  0
LINE
  8
2
 62
     4
  6
continuous
 10
0
 20
0
 11
1.4772116295183082
 21
-0.26047226650040756
  0
LINE
  8
2
 62
     4
  6
continuous
 10
4.166666666666714
 20
0
 11
2.6894550371484058
 21
-0.26047226650040756
  0
LINE
  8
2
 62
     4
  6
continuous
 10
4.166666666666714
 20
0
 11
2.6894550371484058
 21
0.26047226650040045
  0
LINE
  8
2
 62
     4
  6
continuous
 10
0
 20
0
 11
4.166666666666714
 21
0
  0
TEXT
  8
2
 62
     7
 10
0.083333333333342807
 20
0.60000000000000142
 40
2.4096385542168677
 41
1
  1
５０
  7
KANJI
 50
0
  72
    5
  11
4.0833333333333428
  21
0.60000000000000142
  0
ENDBLK
  8
0
  0
BLOCK
  8
2
  2
BV_ATTRIBUTE19
 70
    64
 10
0.0
 20
0.0
 30
0.0
  0
LINE
  8
2
 62
     4
  6
continuous
 10
0
 20
0
 11
1.4772116295183082
 21
0.26047226650040045
  0
LINE
  8
2
 62
     4
  6
continuous
 10
0
 20
0
 11
1.4772116295183082
 21
-0.26047226650041466
  0
LINE
  8
2
 62
     4
  6
continuous
 10
0.41666666666648666
 20
0
 11
-1.0605449628518215
 21
-0.26047226650041466
  0
LINE
  8
2
 62
     4
  6
continuous
 10
0.41666666666648666
 20
0
 11
-1.0605449628518215
 21
0.26047226650040045
  0
LINE
  8
2
 62
     4
  6
continuous
 10
-2.512872771174159
 20
0
 11
2.884264597334635
 21
0
  0
TEXT
  8
2
 62
     7
 10
0.88426459733463503
 20
0.59999999999999432
 40
2.4096385542168677
 41
1
  1
５
  7
KANJI
 50
0
  72
    5
  11
2.884264597334635
  21
0.59999999999999432
  0
ENDBLK
  8
0
  0
BLOCK
  8
2
  2
BV_ATTRIBUTE20
 70
    64
 10
0.0
 20
0.0
 30
0.0
  0
LINE
  8
2
 62
     4
  6
continuous
 10
0
 20
0
 11
1.477211629518365
 21
0.26047226650013044
  0
LINE
  8
2
 62
     4
  6
continuous
 10
0
 20
0
 11
1.477211629518365
 21
-0.26047226650013044
  0
LINE
  8
2
 62
     4
  6
continuous
 10
4.1666666666709489
 20
0
 11
2.6894550371526407
 21
-0.26047226650035071
  0
LINE
  8
2
 62
     4
  6
continuous
 10
4.1666666666709489
 20
0
 11
2.6894550371526407
 21
0.26047226650035071
  0
LINE
  8
2
 62
     4
  6
continuous
 10
0
 20
0
 11
4.1666666666709489
 21
0
  0
TEXT
  8
2
 62
     7
 10
0.083333333335474435
 20
0.60000000000000142
 40
2.4096385542168677
 41
1
  1
５０
  7
KANJI
 50
0
  72
    5
  11
4.0833333333354744
  21
0.60000000000000142
  0
ENDBLK
  8
0
  0
BLOCK
  8
2
  2
BV_ATTRIBUTE21
 70
    64
 10
0.0
 20
0.0
 30
0.0
  0
LINE
  8
2
 62
     4
  6
continuous
 10
0
 20
0
 11
1.477211629518365
 21
0.26047226650026545
  0
LINE
  8
2
 62
     4
  6
continuous
 10
0
 20
0
 11
1.477211629518365
 21
-0.26047226650026545
  0
LINE
  8
2
 62
     4
  6
continuous
 10
4.1666666666666856
 20
0
 11
2.6894550371482921
 21
-0.26047226650001676
  0
LINE
  8
2
 62
     4
  6
continuous
 10
4.1666666666666856
 20
0
 11
2.6894550371482921
 21
0.26047226650001676
  0
LINE
  8
2
 62
     4
  6
continuous
 10
0
 20
0
 11
4.1666666666666856
 21
0
  0
TEXT
  8
2
 62
     7
 10
0.083333333333314386
 20
0.60000000000000142
 40
2.4096385542168677
 41
1
  1
５０
  7
KANJI
 50
0
  72
    5
  11
4.0833333333333144
  21
0.60000000000000142
  0
ENDBLK
  8
0
  0
BLOCK
  8
2
  2
BV_ATTRIBUTE22
 70
    64
 10
0.0
 20
0.0
 30
0.0
  0
LINE
  8
2
 62
     4
  6
continuous
 10
0
 20
0
 11
1.4772116295182514
 21
0.26047226650079836
  0
LINE
  8
2
 62
     4
  6
continuous
 10
0
 20
0
 11
1.4772116295182514
 21
-0.26047226650078414
  0
LINE
  8
2
 62
     4
  6
continuous
 10
0.41666666666645824
 20
0
 11
-1.0605449628519352
 21
-0.26047226650001676
  0
LINE
  8
2
 62
     4
  6
continuous
 10
0.41666666666645824
 20
0
 11
-1.0605449628519352
 21
0.26047226650001676
  0
LINE
  8
2
 62
     4
  6
continuous
 10
-2.512872771174159
 20
0
 11
2.8842645973346066
 21
0
  0
TEXT
  8
2
 62
     7
 10
0.88426459733460661
 20
0.59999999999999432
 40
2.4096385542168677
 41
1
  1
５
  7
KANJI
 50
0
  72
    5
  11
2.8842645973346066
  21
0.59999999999999432
  0
ENDBLK
  8
0
  0
BLOCK
  8
2
  2
BV_ATTRIBUTE23
 70
    64
 10
0.0
 20
0.0
 30
0.0
  0
LINE
  8
2
 62
     4
  6
continuous
 10
0
 20
0
 11
0.26047226650035782
 21
-1.4772116295183224
  0
LINE
  8
2
 62
     4
  6
continuous
 10
0
 20
0
 11
-0.26047226650035782
 21
-1.4772116295183224
  0
LINE
  8
2
 62
     4
  6
continuous
 10
0
 20
-12.499999999999964
 11
-0.26047226650048572
 21
-11.02278837048167
  0
LINE
  8
2
 62
     4
  6
continuous
 10
0
 20
-12.499999999999964
 11
0.26047226650047861
 21
-11.02278837048167
  0
LINE
  8
2
 62
     4
  6
continuous
 10
0
 20
0
 11
0
 21
-12.499999999999964
  0
TEXT
  8
2
 62
     7
 10
-0.59999999999999432
 20
-9.2499999999999858
 40
2.4096385542168677
 41
1
  1
２００
  7
KANJI
 50
90
  72
    5
  11
-0.59999999999999432
  21
-3.2499999999999858
  0
ENDBLK
  8
0
  0
BLOCK
  8
2
  2
BV_ATTRIBUTE24
 70
    64
 10
0.0
 20
0.0
 30
0.0
  0
LINE
  8
2
 62
     4
  6
continuous
 10
0
 20
0
 11
0.26047226650030808
 21
-1.4772116295183366
  0
LINE
  8
2
 62
     4
  6
continuous
 10
0
 20
0
 11
-0.26047226650031519
 21
-1.4772116295183366
  0
LINE
  8
2
 62
     4
  6
continuous
 10
0
 20
-83.3333333333334
 11
-0.26047226650034361
 21
-81.856121703815091
  0
LINE
  8
2
 62
     4
  6
continuous
 10
0
 20
-83.3333333333334
 11
0.2604722665003365
 21
-81.856121703815091
  0
LINE
  8
2
 62
     4
  6
continuous
 10
0
 20
0
 11
0
 21
-83.3333333333334
  0
TEXT
  8
2
 62
     7
 10
-0.59999999999999432
 20
-51.6666666666667
 40
2.4096385542168677
 41
1
  1
１０００（１１００）
  7
KANJI
 50
90
  72
    5
  11
-0.59999999999999432
  21
-31.6666666666667
  0
ENDBLK
  8
0
  0
BLOCK
  8
2
  2
BV_ATTRIBUTE25
 70
    64
 10
0.0
 20
0.0
 30
0.0
  0
LINE
  8
2
 62
     4
  6
continuous
 10
0
 20
0
 11
-0.2604722665003365
 21
1.4772116295183153
  0
LINE
  8
2
 62
     4
  6
continuous
 10
0
 20
0
 11
0.26047226650034361
 21
1.4772116295183153
  0
LINE
  8
2
 62
     4
  6
continuous
 10
0
 20
95.833333333333371
 11
0.26047226650035782
 21
94.356121703815035
  0
LINE
  8
2
 62
     4
  6
continuous
 10
0
 20
95.833333333333371
 11
-0.26047226650035782
 21
94.356121703815035
  0
LINE
  8
2
 62
     4
  6
continuous
 10
0
 20
0
 11
0
 21
95.833333333333371
  0
TEXT
  8
2
 62
     7
 10
-0.59999999999999432
 20
37.916666666666679
 40
2.4096385542168677
 41
1
  1
１２００（１３００）
  7
KANJI
 50
90
  72
    5
  11
-0.59999999999999432
  21
57.916666666666679
  0
ENDBLK
  8
0
  0
BLOCK
  8
2
  2
BV_ATTRIBUTE26
 70
    64
 10
0.0
 20
0.0
 30
0.0
  0
LINE
  8
2
 62
     4
  6
continuous
 10
0
 20
0
 11
-0.26047226650035782
 21
1.4772116295183153
  0
LINE
  8
2
 62
     4
  6
continuous
 10
0
 20
0
 11
0.26047226650035782
 21
1.4772116295183153
  0
LINE
  8
2
 62
     4
  6
continuous
 10
0
 20
61.250000000000021
 11
0.26047226650028676
 21
59.772788370481699
  0
LINE
  8
2
 62
     4
  6
continuous
 10
0
 20
61.250000000000021
 11
-0.26047226650029387
 21
59.772788370481699
  0
LINE
  8
2
 62
     4
  6
continuous
 10
0
 20
0
 11
0
 21
61.250000000000021
  0
TEXT
  8
2
 62
     7
 10
-0.59999999999999432
 20
22.625000000000007
 40
2.4096385542168677
 41
1
  1
７３５（８３５）
  7
KANJI
 50
90
  72
    5
  11
-0.59999999999999432
  21
38.625000000000007
  0
ENDBLK
  8
0
  0
BLOCK
  8
2
  2
BV_ATTRIBUTE27
 70
    64
 10
0.0
 20
0.0
 30
0.0
  0
LINE
  8
2
 62
     4
  6
continuous
 10
0
 20
0
 11
-0.26047226650044308
 21
1.4772116295183082
  0
LINE
  8
2
 62
     4
  6
continuous
 10
0
 20
0
 11
0.26047226650042887
 21
1.4772116295183082
  0
LINE
  8
2
 62
     4
  6
continuous
 10
0
 20
5
 11
0.26047226650035782
 21
3.5227883704816847
  0
LINE
  8
2
 62
     4
  6
continuous
 10
0
 20
5
 11
-0.26047226650035782
 21
3.5227883704816847
  0
LINE
  8
2
 62
     4
  6
continuous
 10
0
 20
0
 11
0
 21
5
  0
TEXT
  8
2
 62
     7
 10
-0.59999999999999432
 20
0.5
 40
2.4096385542168677
 41
1
  1
６０
  7
KANJI
 50
90
  72
    5
  11
-0.59999999999999432
  21
4.5
  0
ENDBLK
  8
0
  0
BLOCK
  8
2
  2
BV_ATTRIBUTE28
 70
    64
 10
0.0
 20
0.0
 30
0.0
  0
LINE
  8
2
 62
     4
  6
continuous
 10
0
 20
0
 11
-1.4772116295183224
 21
-0.26047226650036848
  0
LINE
  8
2
 62
     4
  6
continuous
 10
0
 20
0
 11
-1.4772116295183224
 21
0.26047226650036848
  0
LINE
  8
2
 62
     4
  6
continuous
 10
-8.3333333333335986
 20
0
 11
-6.8561217038152904
 21
0.26047226650037203
  0
LINE
  8
2
 62
     4
  6
continuous
 10
-8.3333333333335986
 20
0
 11
-6.8561217038152904
 21
-0.26047226650037203
  0
LINE
  8
2
 62
     4
  6
continuous
 10
0
 20
0
 11
-8.3333333333335986
 21
0
  0
TEXT
  8
2
 62
     7
 10
-7.1666666666667993
 20
0.60000000000000497
 40
2.4096385542168677
 41
1
  1
１００
  7
KANJI
 50
0
  72
    5
  11
-1.1666666666667993
  21
0.60000000000000497
  0
ENDBLK
  8
0
  0
BLOCK
  8
2
  2
BV_ATTRIBUTE29
 70
    64
 10
0.0
 20
0.0
 30
0.0
  0
LINE
  8
2
 62
     4
  6
continuous
 10
0
 20
0
 11
-1.477211629518294
 21
-0.26047226650043243
  0
LINE
  8
2
 62
     4
  6
continuous
 10
0
 20
0
 11
-1.477211629518294
 21
0.26047226650043243
  0
LINE
  8
2
 62
     4
  6
continuous
 10
-2.5
 20
0
 11
-1.0227883704816918
 21
0.26047226650042532
  0
LINE
  8
2
 62
     4
  6
continuous
 10
-2.5
 20
0
 11
-1.0227883704816918
 21
-0.26047226650042532
  0
LINE
  8
2
 62
     4
  6
continuous
 10
1.8514044244567174
 20
0
 11
-6.119238235166307
 21
0
  0
TEXT
  8
2
 62
     7
 10
-6.119238235166307
 20
0.60000000000000497
 40
2.4096385542168677
 41
1
  1
３０
  7
KANJI
 50
0
  72
    5
  11
-2.119238235166307
  21
0.60000000000000497
  0
ENDBLK
  8
0
  0
BLOCK
  8
2
  2
BV_ATTRIBUTE30
 70
    64
 10
0.0
 20
0.0
 30
0.0
  0
LINE
  8
2
 62
     4
  6
continuous
 10
0
 20
0
 11
1.4772116295183082
 21
0.26047226650042532
  0
LINE
  8
2
 62
     4
  6
continuous
 10
0
 20
0
 11
1.4772116295183082
 21
-0.26047226650042532
  0
LINE
  8
2
 62
     4
  6
continuous
 10
2.5
 20
0
 11
1.0227883704816918
 21
-0.26047226650043243
  0
LINE
  8
2
 62
     4
  6
continuous
 10
2.5
 20
0
 11
1.0227883704816918
 21
0.26047226650043243
  0
LINE
  8
2
 62
     4
  6
continuous
 10
-2.3716800721999789
 20
0
 11
6.4156195883384157
 21
0
  0
TEXT
  8
2
 62
     7
 10
2.4156195883384157
 20
0.60000000000000497
 40
2.4096385542168677
 41
1
  1
３０
  7
KANJI
 50
0
  72
    5
  11
6.4156195883384157
  21
0.60000000000000497
  0
ENDBLK
  8
0
  0
BLOCK
  8
2
  2
BV_ATTRIBUTE31
 70
    64
 10
0.0
 20
0.0
 30
0.0
  0
LINE
  8
2
 62
     4
  6
continuous
 10
0
 20
0
 11
0.26047226650064204
 21
-1.4772116295182656
  0
LINE
  8
2
 62
     4
  6
continuous
 10
0
 20
0
 11
-0.26047226650067046
 21
-1.4772116295182656
  0
LINE
  8
2
 62
     4
  6
continuous
 10
0
 20
-3.3333333333327602
 11
-0.26047226649995991
 21
-1.8561217038143809
  0
LINE
  8
2
 62
     4
  6
continuous
 10
0
 20
-3.3333333333327602
 11
0.26047226649993149
 21
-1.8561217038143809
  0
LINE
  8
2
 62
     4
  6
continuous
 10
0
 20
2.2468105132550562
 11
0
 21
-6.1968225108865909
  0
TEXT
  8
2
 62
     7
 10
-0.59999999999999432
 20
-3.6024032297107311
 40
2.4096385542168677
 41
1
  1
４０
  7
KANJI
 50
90
  72
    5
  11
-0.59999999999999432
  21
0.39759677028926887
  0
ENDBLK
  8
0
  0
BLOCK
  8
2
  2
BV_ATTRIBUTE32
 70
    64
 10
0.0
 20
0.0
 30
0.0
  0
LINE
  8
2
 62
     4
  6
continuous
 10
0
 20
0
 11
1.4772116295185356
 21
0.26047226649910726
  0
LINE
  8
2
 62
     4
  6
continuous
 10
0
 20
0
 11
1.4772116295185356
 21
-0.26047226649910726
  0
LINE
  8
2
 62
     4
  6
continuous
 10
0.41666666665742014
 20
0
 11
-1.0605449628609449
 21
-0.26047226650018729
  0
LINE
  8
2
 62
     4
  6
continuous
 10
0.41666666665742014
 20
0
 11
-1.0605449628609449
 21
0.26047226650015887
  0
LINE
  8
2
 62
     4
  6
continuous
 10
-2.6845241998219649
 20
0
 11
3.3931079065620224
 21
0
  0
TEXT
  8
2
 62
     7
 10
-0.87032347452401382
 20
0.59999999999999432
 40
2.4096385542168677
 41
1
  1
５
  7
KANJI
 50
0
  72
    5
  11
1.1296765254759862
  21
0.59999999999999432
  0
ENDBLK
  8
0
  0
BLOCK
  8
2
  2
BV_ATTRIBUTE33
 70
    64
 10
0.0
 20
0.0
 30
0.0
  0
LINE
  8
2
 62
     4
  6
continuous
 10
0
 20
0
 11
1.2171178730810084
 21
0.87671208673472734
  0
LINE
  8
2
 62
     4
  6
continuous
 10
0
 20
0
 11
1.4435698775212131
 21
0.40756104906303392
  0
LINE
  8
2
 62
     4
  6
continuous
 10
0
 20
0
 11
8.4207525215926609
 21
4.0645679840616111
  0
LINE
  8
2
 62
     4
  6
continuous
 10
8.4207525215926609
 20
4.0645679840616111
 11
19.99737934234011
 21
4.0645679840616111
  0
TEXT
  8
2
 62
     7
 10
8.9973793423401105
 20
4.6645679840616125
 40
2.4096385542168677
 41
1
  1
φ６水抜穴
  7
KANJI
 50
0
  72
    5
  11
18.99737934234011
  21
4.6645679840616125
  0
ENDBLK
  8
0
  0
BLOCK
  8
2
  2
BV_ATTRIBUTE34
 70
    64
 10
0.0
 20
0.0
 30
0.0
  0
LINE
  8
2
 62
     4
  6
continuous
 10
0
 20
0
 11
1.3708083121967434
 21
-0.60900293202276146
  0
LINE
  8
2
 62
     4
  6
continuous
 10
0
 20
0
 11
1.079847185387095
 21
-1.0411196166683254
  0
LINE
  8
2
 62
     4
  6
continuous
 10
0
 20
0
 11
6.0100039237690481
 21
-4.0467715687132966
  0
LINE
  8
2
 62
     4
  6
continuous
 10
6.0100039237690481
 20
-4.0467715687132966
 11
17.429025934552513
 21
-4.0467715687132966
  0
TEXT
  8
2
 62
     7
 10
6.4290259345525129
 20
-3.4467715687133165
 40
2.4096385542168677
 41
1
  1
六角ボルト
  7
KANJI
 50
0
  72
    5
  11
16.429025934552513
  21
-3.4467715687133165
  0
ENDBLK
  8
0
  0
BLOCK
  8
2
  2
BV_ATTRIBUTE35
 70
    64
 10
0.0
 20
0.0
 30
0.0
  0
LINE
  8
2
 62
     4
  6
continuous
 10
0
 20
0
 11
-1.264649013689862
 21
-0.80663676594443245
  0
LINE
  8
2
 62
     4
  6
continuous
 10
0
 20
0
 11
-0.9124953237484732
 21
-1.1905260535314568
  0
LINE
  8
2
 62
     4
  6
continuous
 10
0
 20
0
 11
-2.8834329314821758
 21
-2.6450635101136015
  0
LINE
  8
2
 62
     4
  6
continuous
 10
-2.8834329314821758
 20
-2.6450635101136015
 11
-12.462415502014267
 21
-2.6450635101136015
  0
TEXT
  8
2
 62
     7
 10
-11.462415502014267
 20
-2.0450635101136001
 40
2.4096385542168677
 41
1
  1
補強鉄筋
  7
KANJI
 50
0
  72
    5
  11
-3.4624155020142666
  21
-2.0450635101136001
  0
ENDBLK
  8
0
  0
BLOCK
  8
2
  2
BV_ATTRIBUTE36
 70
    64
 10
0.0
 20
0.0
 30
0.0
  0
LINE
  8
2
 62
     4
  6
continuous
 10
0
 20
0
 11
-1.1464475422286142
 21
-0.96729418116618859
  0
LINE
  8
2
 62
     4
  6
continuous
 10
0
 20
0
 11
-0.7464742010698302
 21
-1.3010673568794076
  0
LINE
  8
2
 62
     4
  6
continuous
 10
0
 20
0
 11
-6.3766170071053239
 21
-7.6413474635039549
  0
LINE
  8
2
 62
     4
  6
continuous
 10
-6.3766170071053239
 20
-7.6413474635039549
 11
-21.634916411260562
 21
-7.6413474635039549
  0
TEXT
  8
2
 62
     7
 10
-20.634916411260562
 20
-7.0413474635039535
 40
2.4096385542168677
 41
1
  1
ベースアングル
  7
KANJI
 50
0
  72
    5
  11
-6.6349164112605621
  21
-7.0413474635039535
  0
ENDBLK
  8
0
  0
BLOCK
  8
2
  2
BV_ATTRIBUTE37
 70
    64
 10
0.0
 20
0.0
 30
0.0
  0
LINE
  8
2
 62
     4
  6
continuous
 10
0
 20
0
 11
1.0790276147419462
 21
-1.041969004637032
  0
LINE
  8
2
 62
     4
  6
continuous
 10
0
 20
0
 11
0.6575798988903756
 21
-1.3481797641914497
  0
LINE
  8
2
 62
     4
  6
continuous
 10
0
 20
0
 11
7.0131648025124349
 21
-9.6524442550957659
  0
LINE
  8
2
 62
     4
  6
continuous
 10
7.0131648025124349
 20
-9.6524442550957659
 11
18.232807776243078
 21
-9.6524442550957659
  0
TEXT
  8
2
 62
     7
 10
7.232807776243078
 20
-9.0524442550957644
 40
2.4096385542168677
 41
1
  1
六角ボルト
  7
KANJI
 50
0
  72
    5
  11
17.232807776243078
  21
-9.0524442550957644
  0
ENDBLK
  8
0
  0
BLOCK
  8
2
  2
BV_ATTRIBUTE38
 70
    64
 10
0.0
 20
0.0
 30
0.0
  0
LINE
  8
2
 62
     4
  6
continuous
 10
0
 20
0
 11
-1.2356271983376388
 21
-0.85042661454605195
  0
LINE
  8
2
 62
     4
  6
continuous
 10
0
 20
0
 11
-0.87024672772525946
 21
-1.2217490056814029
  0
LINE
  8
2
 62
     4
  6
continuous
 10
0
 20
0
 11
-11.84701455564695
 21
-11.657438002752542
  0
LINE
  8
2
 62
     4
  6
continuous
 10
-11.84701455564695
 20
-11.657438002752542
 11
-27.657726119700129
 21
-11.657438002752542
  0
TEXT
  8
2
 62
     7
 10
-26.657726119700129
 20
-11.057438002752548
 40
2.4096385542168677
 41
1
  1
トップアングル
  7
KANJI
 50
0
  72
    5
  11
-12.657726119700129
  21
-11.057438002752548
  0
ENDBLK
  8
0
  0
BLOCK
  8
2
  2
BV_ATTRIBUTE39
 70
    64
 10
0.0
 20
0.0
 30
0.0
  0
LINE
  8
2
 62
     4
  6
continuous
 10
0
 20
0
 11
-0.51941190831342965
 21
1.4071997972932593
  0
LINE
  8
2
 62
     4
  6
continuous
 10
0
 20
0
 11
-0.96937821374856981
 21
1.1446859301614722
  0
LINE
  8
2
 62
     4
  6
continuous
 10
0
 20
0
 11
-5.8452031703307341
 21
10.019068721238483
  0
LINE
  8
2
 62
     4
  6
continuous
 10
-5.8452031703307341
 20
10.019068721238483
 11
-19.047764751867618
 21
10.019068721238483
  0
TEXT
  8
2
 62
     7
 10
-18.047764751867618
 20
10.619068721238477
 40
2.4096385542168677
 41
1
  1
笠木スリーブ
  7
KANJI
 50
0
  72
    5
  11
-6.0477647518676179
  21
10.619068721238477
  0
ENDBLK
  8
0
  0
BLOCK
  8
2
  2
BV_ATTRIBUTE40
 70
    64
 10
0.0
 20
0.0
 30
0.0
  0
LINE
  8
2
 62
     4
  6
continuous
 10
0
 20
0
 11
-1.1012142108326799
 21
-1.0184926420255209
  0
LINE
  8
2
 62
     4
  6
continuous
 10
0
 20
0
 11
-0.68645786842233747
 21
-1.3337074622573937
  0
LINE
  8
2
 62
     4
  6
continuous
 10
0
 20
0
 11
-2.3812566774500539
 21
-3.1332324703290055
  0
LINE
  8
2
 62
     4
  6
continuous
 10
-2.3812566774500539
 20
-3.1332324703290055
 11
-14.133232470329006
 21
-3.1332324703290055
  0
TEXT
  8
2
 62
     7
 10
-13.133232470329006
 20
-2.5332324703290112
 40
2.4096385542168677
 41
1
  1
バラスター
  7
KANJI
 50
0
  72
    5
  11
-3.1332324703290055
  21
-2.5332324703290112
  0
ENDBLK
  8
0
  0
BLOCK
  8
2
  2
BV_ATTRIBUTE41
 70
    64
 10
0.0
 20
0.0
 30
0.0
  0
LINE
  8
2
 62
     4
  6
continuous
 10
0
 20
0
 11
1.2869688271473194
 21
-0.77052659782193444
  0
LINE
  8
2
 62
     4
  6
continuous
 10
0
 20
0
 11
0.94581949262854437
 21
-1.1642274208091479
  0
LINE
  8
2
 62
     4
  6
continuous
 10
0
 20
0
 11
8.8647238403023323
 21
-7.681453688274992
  0
LINE
  8
2
 62
     4
  6
continuous
 10
8.8647238403023323
 20
-7.681453688274992
 11
22.207785005386285
 21
-7.681453688274992
  0
TEXT
  8
2
 62
     7
 10
9.2077850053862846
 20
-7.0814536882749906
 40
2.4096385542168677
 41
1
  1
タッピンねじ
  7
KANJI
 50
0
  72
    5
  11
21.207785005386285
  21
-7.0814536882749906
  0
ENDBLK
  8
0
  0
BLOCK
  8
2
  2
BV_ATTRIBUTE42
 70
    64
 10
0.0
 20
0.0
 30
0.0
  0
LINE
  8
2
 62
     4
  6
continuous
 10
0
 20
0
 11
1.0828013180367009
 21
-1.0380468706459922
  0
LINE
  8
2
 62
     4
  6
continuous
 10
0
 20
0
 11
0.662467468859262
 21
-1.3457848463640758
  0
LINE
  8
2
 62
     4
  6
continuous
 10
0
 20
0
 11
5.2025068774321142
 21
-7.106011976781538
  0
LINE
  8
2
 62
     4
  6
continuous
 10
5.2025068774321142
 20
-7.106011976781538
 11
15.321278521024425
 21
-7.106011976781538
  0
TEXT
  8
2
 62
     7
 10
6.3212785210244249
 20
-6.5060119767815365
 40
2.4096385542168677
 41
1
  1
丸小ねじ
  7
KANJI
 50
0
  72
    5
  11
14.321278521024425
  21
-6.5060119767815365
  0
ENDBLK
  8
0
  0
BLOCK
  8
2
  2
BV_ATTRIBUTE43
 70
    64
 10
0.0
 20
0.0
 30
0.0
  0
LINE
  8
2
 62
     4
  6
continuous
 10
0
 20
0
 11
-1.3274785533696161
 21
-0.69842729782259738
  0
LINE
  8
2
 62
     4
  6
continuous
 10
0
 20
0
 11
-1.008545596349137
 21
-1.1103313830045565
  0
LINE
  8
2
 62
     4
  6
continuous
 10
0
 20
0
 11
-7.7399500439388191
 21
-5.9929610885352034
  0
LINE
  8
2
 62
     4
  6
continuous
 10
-7.7399500439388191
 20
-5.9929610885352034
 11
-19.224198056364543
 21
-5.9929610885352034
  0
TEXT
  8
2
 62
     7
 10
-18.224198056364543
 20
-5.392961088535202
 40
2.4096385542168677
 41
1
  1
六角ボルト
  7
KANJI
 50
0
  72
    5
  11
-8.2241980563645427
  21
-5.392961088535202
  0
ENDBLK
  8
0
  0
BLOCK
  8
2
  2
BV_ATTRIBUTE44
 70
    64
 10
0.0
 20
0.0
 30
0.0
  0
LINE
  8
2
 62
     4
  6
continuous
 10
0
 20
0
 11
-0.82921086829057344
 21
-1.2499637338374328
  0
LINE
  8
2
 62
     4
  6
continuous
 10
0
 20
0
 11
-0.35169055860919229
 21
-1.4581885169569659
  0
LINE
  8
2
 62
     4
  6
continuous
 10
0
 20
0
 11
-2.4552744701461506
 21
-5.6306622476532908
  0
LINE
  8
2
 62
     4
  6
continuous
 10
-2.4552744701461506
 20
-5.6306622476532908
 11
-13.704403573344479
 21
-5.6306622476532908
  0
TEXT
  8
2
 62
     7
 10
-12.704403573344479
 20
-5.0306622476532965
 40
2.4096385542168677
 41
1
  1
笠木カバー
  7
KANJI
 50
0
  72
    5
  11
-2.7044035733444787
  21
-5.0306622476532965
  0
ENDBLK
  8
0
  0
BLOCK
  8
2
  2
BV_ATTRIBUTE45
 70
    64
 10
0.0
 20
0.0
 30
0.0
  0
LINE
  8
2
 62
     4
  6
continuous
 10
0
 20
0
 11
0.34437841268592706
 21
1.4599327069683454
  0
LINE
  8
2
 62
     4
  6
continuous
 10
0
 20
0
 11
0.82293624684206179
 21
1.2541036375170336
  0
LINE
  8
2
 62
     4
  6
continuous
 10
0
 20
0
 11
3.93122031569618
 21
9.1401874617878036
  0
LINE
  8
2
 62
     4
  6
continuous
 10
3.93122031569618
 20
9.1401874617878036
 11
17.594856270767508
 21
9.1401874617878036
  0
TEXT
  8
2
 62
     7
 10
4.594856270767508
 20
9.7401874617877979
 40
2.4096385542168677
 41
1
  1
タッピンねじ
  7
KANJI
 50
0
  72
    5
  11
16.594856270767508
  21
9.7401874617877979
  0
ENDBLK
  8
0
  0
BLOCK
  8
2
  2
BV_ATTRIBUTE46
 70
    64
 10
0.0
 20
0.0
 30
0.0
  0
LINE
  8
2
 62
     4
  6
continuous
 10
0
 20
0
 11
0.93602002754454361
 21
1.1721205177094589
  0
LINE
  8
2
 62
     4
  6
continuous
 10
0
 20
0
 11
1.2804599402533796
 21
0.78129529718685831
  0
LINE
  8
2
 62
     4
  6
continuous
 10
0
 20
0
 11
3.6672254015710735
 21
3.2319787231533326
  0
LINE
  8
2
 62
     4
  6
continuous
 10
3.6672254015710735
 20
3.2319787231533326
 11
8.9001197156097049
 21
3.2319787231533326
  0
TEXT
  8
2
 62
     7
 10
3.4001197156097049
 20
3.8319787231533269
 40
2.4096385542168677
 41
1
  1
笠 木
  7
KANJI
 50
0
  72
    5
  11
8.4001197156097049
  21
3.8319787231533269
  0
ENDBLK
  8
0
  0
BLOCK
  8
2
  2
BV_ATTRIBUTE47
 70
    64
 10
0.0
 20
0.0
 30
0.0
  0
LINE
  8
2
 62
     4
  6
continuous
 10
0
 20
0
 11
0.95288485372462617
 21
1.158451749337118
  0
LINE
  8
2
 62
     4
  6
continuous
 10
0
 20
0
 11
1.2916326988478346
 21
0.76268274614486131
  0
LINE
  8
2
 62
     4
  6
continuous
 10
0
 20
0
 11
4.4710155332484476
 21
3.8268456225325167
  0
LINE
  8
2
 62
     4
  6
continuous
 10
4.4710155332484476
 20
3.8268456225325167
 11
10.027097390169004
 21
3.8268456225325167
  0
TEXT
  8
2
 62
     7
 10
4.5270973901690041
 20
4.426845622532511
 40
2.4096385542168677
 41
1
  1
支 柱
  7
KANJI
 50
0
  72
    5
  11
9.5270973901690041
  21
4.426845622532511
  0
ENDBLK
  8
0
  0
BLOCK
  8
シ__ト2
  2
BV_ATTRIBUTE48
 70
    64
 10
0.0
 20
0.0
 30
0.0
  0
LINE
  8
シ__ト2
 62
     4
  6
continuous
 10
0
 20
0
 11
1.0527482618185786
 21
1.0685134988562268
  0
LINE
  8
シ__ト2
 62
     4
  6
continuous
 10
0
 20
0
 11
1.3547129132003306
 21
0.64401313869228716
  0
LINE
  8
シ__ト2
 62
     4
  6
continuous
 10
0
 20
0
 11
6.0347447436315065
 21
4.2927633606359805
  0
LINE
  8
シ__ト2
 62
     4
  6
continuous
 10
6.0347447436315065
 20
4.2927633606359805
 11
19.28335612175394
 21
4.2927633606359805
  0
TEXT
  8
シ__ト2
 62
     7
 10
6.2833561217539398
 20
4.8927633606359748
 40
2.4096385542168677
 41
1
  1
ボトムレール
  7
KANJI
 50
0
  72
    5
  11
18.28335612175394
  21
4.8927633606359748
  0
ENDBLK
  8
0
  0
BLOCK
  8
シ__ト8
  2
BV_ATTRIBUTE49
 70
    64
 10
0.0
 20
0.0
 30
0.0
  0
LINE
  8
シ__ト8
 62
     4
  6
continuous
 10
0
 20
0
 11
1.4772116295185072
 21
0.26047226649933464
  0
LINE
  8
シ__ト8
 62
     4
  6
continuous
 10
0
 20
0
 11
1.4772116295185072
 21
-0.26047226649930622
  0
LINE
  8
シ__ト8
 62
     4
  6
continuous
 10
41.666666666666686
 20
0
 11
40.18945503714815
 21
-0.26047226649916411
  0
LINE
  8
シ__ト8
 62
     4
  6
continuous
 10
41.666666666666686
 20
0
 11
40.18945503714815
 21
0.26047226649916411
  0
LINE
  8
シ__ト8
 62
     4
  6
continuous
 10
0
 20
0
 11
41.666666666666686
 21
0
  0
TEXT
  8
シ__ト8
 62
     7
 10
16.833333333333343
 20
0.60000000000002274
 40
2.4096385542168677
 41
1
  1
２５００
  7
KANJI
 50
0
  72
    5
  11
24.833333333333343
  21
0.60000000000002274
  0
ENDBLK
  8
0
  0
BLOCK
  8
シ__ト8
  2
BV_ATTRIBUTE50
 70
    64
 10
0.0
 20
0.0
 30
0.0
  0
LINE
  8
シ__ト8
 62
     4
  6
continuous
 10
0
 20
0
 11
1.4772116295184503
 21
0.2604722664996757
  0
LINE
  8
シ__ト8
 62
     4
  6
continuous
 10
0
 20
0
 11
1.4772116295184503
 21
-0.26047226649970412
  0
LINE
  8
シ__ト8
 62
     4
  6
continuous
 10
41.666666666666657
 20
0
 11
40.18945503714852
 21
-0.26047226650149469
  0
LINE
  8
シ__ト8
 62
     4
  6
continuous
 10
41.666666666666657
 20
0
 11
40.18945503714852
 21
0.26047226650149469
  0
LINE
  8
シ__ト8
 62
     4
  6
continuous
 10
0
 20
0
 11
41.666666666666657
 21
0
  0
TEXT
  8
シ__ト8
 62
     7
 10
16.833333333333343
 20
0.60000000000002274
 40
2.4096385542168677
 41
1
  1
２５００
  7
KANJI
 50
0
  72
    5
  11
24.833333333333343
  21
0.60000000000002274
  0
ENDBLK
  8
0
  0
BLOCK
  8
シ__ト8
  2
BV_ATTRIBUTE51
 70
    64
 10
0.0
 20
0.0
 30
0.0
  0
LINE
  8
シ__ト8
 62
     4
  6
continuous
 10
0
 20
0
 11
1.4772116295183366
 21
0.2604722665003294
  0
LINE
  8
シ__ト8
 62
     4
  6
continuous
 10
0
 20
0
 11
1.4772116295183366
 21
-0.26047226650030098
  0
LINE
  8
シ__ト8
 62
     4
  6
continuous
 10
46.666666666666657
 20
0
 11
45.189455037148207
 21
-0.2604722664996757
  0
LINE
  8
シ__ト8
 62
     4
  6
continuous
 10
46.666666666666657
 20
0
 11
45.189455037148207
 21
0.2604722664996757
  0
LINE
  8
シ__ト8
 62
     4
  6
continuous
 10
0
 20
0
 11
46.666666666666657
 21
0
  0
TEXT
  8
シ__ト8
 62
     7
 10
22.333333333333371
 20
0.60000000000002274
 40
2.4096385542168677
 41
1
  1
Ｌ
  7
KANJI
 50
0
  72
    5
  11
24.333333333333371
  21
0.60000000000002274
  0
ENDBLK
  8
0
  0
BLOCK
  8
シ__ト8
  2
BV_ATTRIBUTE52
 70
    64
 10
0.0
 20
0.0
 30
0.0
  0
LINE
  8
シ__ト8
 62
     4
  6
continuous
 10
0
 20
0
 11
-1.4772116295183082
 21
-0.26047226650035782
  0
LINE
  8
シ__ト8
 62
     4
  6
continuous
 10
0
 20
0
 11
-1.4772116295183082
 21
0.26047226650038624
  0
LINE
  8
シ__ト8
 62
     4
  6
continuous
 10
-41.666666666666686
 20
0
 11
-40.189455037148591
 21
0.26047226650172206
  0
LINE
  8
シ__ト8
 62
     4
  6
continuous
 10
-41.666666666666686
 20
0
 11
-40.189455037148591
 21
-0.26047226650169364
  0
LINE
  8
シ__ト8
 62
     4
  6
continuous
 10
0
 20
0
 11
-41.666666666666686
 21
0
  0
TEXT
  8
シ__ト8
 62
     7
 10
-22.333333333333343
 20
0.60000000000002274
 40
2.4096385542168677
 41
1
  1
Ｌ1
  7
KANJI
 50
0
  72
    5
  11
-19.333333333333343
  21
0.60000000000002274
  0
ENDBLK
  8
0
  0
BLOCK
  8
シ__ト8
  2
BV_ATTRIBUTE53
 70
    64
 10
0.0
 20
0.0
 30
0.0
  0
LINE
  8
シ__ト8
 62
     4
  6
continuous
 10
0
 20
0
 11
-1.4772116295182087
 21
-0.26047226650101152
  0
LINE
  8
シ__ト8
 62
     4
  6
continuous
 10
0
 20
0
 11
-1.4772116295182087
 21
0.26047226650101152
  0
LINE
  8
シ__ト8
 62
     4
  6
continuous
 10
-4.9999999999999716
 20
0
 11
-3.5227883704816776
 21
0.26047226650047151
  0
LINE
  8
シ__ト8
 62
     4
  6
continuous
 10
-4.9999999999999716
 20
0
 11
-3.5227883704816776
 21
-0.26047226650047151
  0
LINE
  8
シ__ト8
 62
     4
  6
continuous
 10
0
 20
0
 11
-4.9999999999999716
 21
0
  0
TEXT
  8
シ__ト8
 62
     7
 10
-3.9999999999999858
 20
0.60000000000002274
 40
2.4096385542168677
 41
1
  1
Ｌ2
  7
KANJI
 50
0
  72
    5
  11
-0.99999999999998579
  21
0.60000000000002274
  0
ENDBLK
  8
0
  0
BLOCK
  8
シ__ト8
  2
BV_ATTRIBUTE54
 70
    64
 10
0.0
 20
0.0
 30
0.0
  0
LINE
  8
シ__ト8
 62
     4
  6
continuous
 10
0
 20
0
 11
1.4772116295181377
 21
0.26047226650169364
  0
LINE
  8
シ__ト8
 62
     4
  6
continuous
 10
0
 20
0
 11
1.4772116295181377
 21
-0.26047226650166522
  0
LINE
  8
シ__ト8
 62
     4
  6
continuous
 10
35.100000000000108
 20
0
 11
33.622788370481629
 21
-0.26047226649950517
  0
LINE
  8
シ__ト8
 62
     4
  6
continuous
 10
35.100000000000108
 20
0
 11
33.622788370481629
 21
0.26047226649953359
  0
LINE
  8
シ__ト8
 62
     4
  6
continuous
 10
0
 20
0
 11
35.100000000000108
 21
0
  0
TEXT
  8
シ__ト8
 62
     7
 10
6.5500000000000398
 20
0.60000000000002274
 40
2.4096385542168677
 41
1
  1
１３＠１６２＝２１０６
  7
KANJI
 50
0
  72
    5
  11
28.55000000000004
  21
0.60000000000002274
  0
ENDBLK
  8
0
  0
BLOCK
  8
シ__ト8
  2
BV_ATTRIBUTE55
 70
    64
 10
0.0
 20
0.0
 30
0.0
  0
LINE
  8
シ__ト8
 62
     4
  6
continuous
 10
0
 20
0
 11
1.4772116295181945
 21
0.26047226650129573
  0
LINE
  8
シ__ト8
 62
     4
  6
continuous
 10
0
 20
0
 11
1.4772116295181945
 21
-0.26047226650126731
  0
LINE
  8
シ__ト8
 62
     4
  6
continuous
 10
3.283333333333303
 20
0
 11
1.8061217038149948
 21
-0.26047226650038624
  0
LINE
  8
シ__ト8
 62
     4
  6
continuous
 10
3.283333333333303
 20
0
 11
1.8061217038149948
 21
0.26047226650041466
  0
LINE
  8
シ__ト8
 62
     4
  6
continuous
 10
-4.6403305959861711
 20
0
 11
7.5870394307576419
 21
0
  0
TEXT
  8
シ__ト8
 62
     7
 10
0.1831814478500462
 20
0.60000000000002274
 40
2.4096385542168677
 41
1
  1
１９７
  7
KANJI
 50
0
  72
    5
  11
6.1831814478500462
  21
0.60000000000002274
  0
ENDBLK
  8
0
  0
BLOCK
  8
シ__ト8
  2
BV_ATTRIBUTE56
 70
    64
 10
0.0
 20
0.0
 30
0.0
  0
LINE
  8
シ__ト8
 62
     4
  6
continuous
 10
0
 20
0
 11
1.4772116295182514
 21
0.26047226650078414
  0
LINE
  8
シ__ト8
 62
     4
  6
continuous
 10
0
 20
0
 11
1.4772116295182514
 21
-0.26047226650075572
  0
LINE
  8
シ__ト8
 62
     4
  6
continuous
 10
3.2833333333332746
 20
0
 11
1.806121703814739
 21
-0.26047226649913569
  0
LINE
  8
シ__ト8
 62
     4
  6
continuous
 10
3.2833333333332746
 20
0
 11
1.806121703814739
 21
0.26047226649913569
  0
LINE
  8
シ__ト8
 62
     4
  6
continuous
 10
-4.1381602751974924
 20
0
 11
6.4412430865127135
 21
0
  0
TEXT
  8
シ__ト8
 62
     7
 10
-2.169820233760646
 20
0.60000000000002274
 40
2.4096385542168677
 41
1
  1
１９７
  7
KANJI
 50
0
  72
    5
  11
3.830179766239354
  21
0.60000000000002274
  0
ENDBLK
  8
0
  0
ENDSEC
  0
SECTION
  2
ENTITIES
  0
POINT
  8
シ__ト8
 62
     3
 10
164.56863843117085
 20
175.68460726295103
  0
POINT
  8
シ__ト8
 62
     3
 10
164.71863843117097
 20
175.68460726295103
  0
POINT
  8
シ__ト8
 62
     3
 10
199.81863843117108
 20
175.68460726295103
  0
POINT
  8
シ__ト14
 62
     7
 10
15.999999999999995
 20
11.499999999999998
  0
LINE
  8
2
 62
     7
  6
line_font22
 10
118.70783047728156
 20
40.427038453415868
 11
129.06839609017106
 21
40.427038453415868
  0
LINE
  8
2
 62
     3
  6
line_font28
 10
120.03580929363387
 20
40.968705120082532
 11
128.0113771726152
 21
40.968705120082532
  0
LINE
  8
2
 62
     3
  6
line_font28
 10
119.72144661705963
 20
39.885371786749204
 11
127.74041727381874
 21
39.885371786749204
  0
LINE
  8
2
 62
     7
  6
line_font22
 10
142.45783047728156
 20
40.427038453415868
 11
152.81839609017103
 21
40.427038453415868
  0
LINE
  8
2
 62
     3
  6
line_font28
 10
143.78580929363386
 20
40.968705120082532
 11
151.76137717261523
 21
40.968705120082532
  0
LINE
  8
2
 62
     3
  6
line_font28
 10
143.47144661705966
 20
39.885371786749204
 11
151.49041727381871
 21
39.885371786749204
  0
LINE
  8
2
 62
     7
  6
line_font22
 10
139.01311328372591
 20
51.260371786749062
 11
140.97144661705994
 21
51.260371786749211
  0
LINE
  8
2
 62
     2
  6
continuous
 10
140.1381132837266
 20
51.510371786749211
 11
139.84644661705994
 21
51.51037178674936
  0
LINE
  8
2
 62
     2
  6
continuous
 10
140.1381132837266
 20
51.010371786749211
 11
139.84644661705994
 21
51.010371786749062
  0
LINE
  8
2
 62
     3
  6
continuous
 10
131.38811328372185
 20
63.343705120082582
 11
131.38811328372185
 21
63.093705120082582
  0
LINE
  8
2
 62
     7
  6
line_font22
 10
128.88811328372185
 20
63.952038453415931
 11
128.88811328372185
 21
61.510371786749246
  0
LINE
  8
2
 62
     4
  6
continuous
 10
128.47144661705516
 20
63.427038453415918
 11
129.30477995038851
 21
63.427038453415918
  0
LINE
  8
2
 62
     4
  6
continuous
 10
128.47144661705516
 20
63.427038453415918
 11
128.47144661705516
 21
63.343705120082582
  0
LINE
  8
2
 62
     4
  6
continuous
 10
129.30477995038851
 20
63.427038453415918
 11
129.30477995038851
 21
63.343705120082582
  0
LINE
  8
2
 62
     4
  6
continuous
 10
128.51311328372185
 20
63.427038453415918
 11
128.51311328372185
 21
63.515151021930315
  0
LINE
  8
2
 62
     4
  6
continuous
 10
129.26311328372179
 20
63.427038453415918
 11
129.26311328372179
 21
63.515151021930315
  0
LINE
  8
2
 62
     4
  6
continuous
 10
128.67977995038851
 20
61.827038453415931
 11
129.09644661705516
 21
61.827038453415931
  0
LINE
  8
2
 62
     4
  6
continuous
 10
129.09644661705516
 20
61.827038453415931
 11
129.0297799503885
 21
61.760371786749246
  0
LINE
  8
2
 62
     4
  6
continuous
 10
128.7464466170552
 20
61.760371786749246
 11
128.67977995038851
 21
61.827038453415931
  0
LINE
  8
2
 62
     4
  6
continuous
 10
128.7464466170552
 20
61.760371786749246
 11
129.0297799503885
 21
61.760371786749246
  0
LINE
  8
2
 62
     3
  6
continuous
 10
140.55477995039303
 20
63.343705120082582
 11
140.55477995039303
 21
63.093705120082582
  0
LINE
  8
2
 62
     3
  6
continuous
 10
140.55477995039303
 20
60.260371786749246
 11
140.55477995039303
 21
59.593705120082582
  0
LINE
  8
2
 62
     7
  6
line_font22
 10
143.05477995039303
 20
63.952038453415931
 11
143.05477995039303
 21
61.510371786749246
  0
LINE
  8
2
 62
     4
  6
continuous
 10
142.63811328372637
 20
63.427038453415918
 11
143.47144661705971
 21
63.427038453415918
  0
LINE
  8
2
 62
     4
  6
continuous
 10
142.63811328372637
 20
63.427038453415918
 11
142.63811328372637
 21
63.343705120082582
  0
LINE
  8
2
 62
     4
  6
continuous
 10
143.47144661705971
 20
63.427038453415918
 11
143.47144661705971
 21
63.343705120082582
  0
LINE
  8
2
 62
     4
  6
continuous
 10
142.67977995039303
 20
63.427038453415918
 11
142.67977995039303
 21
63.515151021930315
  0
LINE
  8
2
 62
     4
  6
continuous
 10
143.42977995039303
 20
63.427038453415918
 11
143.42977995039303
 21
63.515151021930315
  0
LINE
  8
2
 62
     4
  6
continuous
 10
142.84644661705971
 20
61.827038453415931
 11
143.26311328372637
 21
61.827038453415931
  0
LINE
  8
2
 62
     4
  6
continuous
 10
143.26311328372637
 20
61.827038453415931
 11
143.19644661705971
 21
61.760371786749246
  0
LINE
  8
2
 62
     4
  6
continuous
 10
142.9131132837264
 20
61.760371786749246
 11
142.84644661705971
 21
61.827038453415931
  0
LINE
  8
2
 62
     4
  6
continuous
 10
142.9131132837264
 20
61.760371786749246
 11
143.19644661705971
 21
61.760371786749246
  0
LINE
  8
2
 62
     7
  6
continuous
 10
127.63811328372185
 20
62.843705120082547
 11
127.63811328372185
 21
63.093705120082582
  0
LINE
  8
2
 62
     7
  6
continuous
 10
130.72144661705516
 20
62.760371786749246
 11
127.72144661705518
 21
62.760371786749246
  0
LINE
  8
2
 62
     7
  6
continuous
 10
130.97144661705516
 20
60.343705120082547
 11
130.97144661705516
 21
62.510371786749246
  0
LINE
  8
2
 62
     7
  6
continuous
 10
131.05477995038851
 20
60.260371786749246
 11
131.80477995038851
 21
60.260371786749246
  0
LINE
  8
2
 62
     7
  6
continuous
 10
127.63811328372185
 20
63.093705120082582
 11
131.80477995038851
 21
63.093705120082582
  0
LINE
  8
2
 62
     4
  6
continuous
 10
130.22144661705519
 20
61.832139781096359
 11
130.22144661705519
 21
60.605270459068407
  0
LINE
  8
2
 62
     4
  6
continuous
 10
130.80477995038851
 20
62.093705120082355
 11
130.80477995038851
 21
60.343705120082355
  0
LINE
  8
2
 62
     4
  6
continuous
 10
130.33950217261074
 20
62.036618001434334
 11
130.80477995038851
 21
62.036618001434334
  0
LINE
  8
2
 62
     4
  6
continuous
 10
130.33950217261074
 20
61.627661560758334
 11
130.80477995038851
 21
61.627661560758334
  0
LINE
  8
2
 62
     4
  6
continuous
 10
130.33950217261074
 20
60.809748679406376
 11
130.80477995038851
 21
60.809748679406376
  0
LINE
  8
2
 62
     4
  6
continuous
 10
130.33950217261074
 20
60.400792238730396
 11
130.80477995038851
 21
60.400792238730396
  0
LINE
  8
2
 62
     4
  6
continuous
 10
130.80477995038851
 20
62.093705120082355
 11
130.97144661705519
 21
62.093705120082355
  0
LINE
  8
2
 62
     4
  6
continuous
 10
130.80477995038851
 20
60.343705120082355
 11
130.97144661705519
 21
60.343705120082355
  0
LINE
  8
2
 62
     4
  6
continuous
 10
142.0131132837264
 20
61.832139781096359
 11
142.0131132837264
 21
60.605270459068407
  0
LINE
  8
2
 62
     4
  6
continuous
 10
141.34644661705974
 20
62.036618001434334
 11
141.34644661705974
 21
60.400792238730396
  0
LINE
  8
2
 62
     4
  6
continuous
 10
141.89505772817083
 20
62.036618001434334
 11
141.34644661705974
 21
62.036618001434334
  0
LINE
  8
2
 62
     4
  6
continuous
 10
141.89505772817083
 20
61.627661560758334
 11
141.34644661705974
 21
61.627661560758334
  0
LINE
  8
2
 62
     4
  6
continuous
 10
141.89505772817083
 20
60.809748679406376
 11
141.34644661705974
 21
60.809748679406376
  0
LINE
  8
2
 62
     4
  6
continuous
 10
141.89505772817083
 20
60.400792238730396
 11
141.34644661705974
 21
60.400792238730396
  0
LINE
  8
2
 62
     4
  6
continuous
 10
141.1381132837264
 20
62.093705120082355
 11
141.1381132837264
 21
60.343705120082355
  0
LINE
  8
2
 62
     4
  6
continuous
 10
141.34644661705974
 20
61.985371786749042
 11
141.1381132837264
 21
61.985371786749042
  0
LINE
  8
2
 62
     4
  6
continuous
 10
141.34644661705974
 20
60.452038453415703
 11
141.1381132837264
 21
60.452038453415703
  0
LINE
  8
2
 62
     4
  6
continuous
 10
141.34644661705974
 20
61.343705120082355
 11
141.1381132837264
 21
61.260371786749019
  0
LINE
  8
2
 62
     4
  6
continuous
 10
141.34644661705974
 20
61.17703845341569
 11
141.1381132837264
 21
61.093705120082376
  0
LINE
  8
2
 62
     4
  6
continuous
 10
141.1381132837264
 20
62.093705120082355
 11
140.97144661705974
 21
62.093705120082355
  0
LINE
  8
2
 62
     4
  6
continuous
 10
141.1381132837264
 20
60.343705120082355
 11
140.97144661705974
 21
60.343705120082355
  0
LINE
  8
2
 62
     4
  6
continuous
 10
142.47144661705971
 20
61.51037178674904
 11
142.47144661705971
 21
60.92703845341569
  0
LINE
  8
2
 62
     4
  6
continuous
 10
142.34644661705971
 20
60.80203845341569
 11
142.0131132837264
 21
60.80203845341569
  0
LINE
  8
2
 62
     4
  6
continuous
 10
142.34644661705971
 20
61.635371786749019
 11
142.0131132837264
 21
61.635371786749019
  0
LINE
  8
2
 62
     4
  6
continuous
 10
142.47144661705971
 20
60.92703845341569
 11
142.0131132837264
 21
60.92703845341569
  0
LINE
  8
2
 62
     4
  6
continuous
 10
142.47144661705971
 20
61.51037178674904
 11
142.0131132837264
 21
61.51037178674904
  0
LINE
  8
2
 62
     4
  6
continuous
 10
142.34644661705971
 20
61.635371786749019
 11
142.34644661705971
 21
60.80203845341569
  0
LINE
  8
2
 62
     4
  6
continuous
 10
142.34644661705971
 20
61.635371786749019
 11
142.47144661705971
 21
61.51037178674904
  0
LINE
  8
2
 62
     4
  6
continuous
 10
142.47144661705971
 20
60.92703845341569
 11
142.34644661705971
 21
60.80203845341569
  0
LINE
  8
2
 62
     4
  6
continuous
 10
139.80477995039305
 20
61.51037178674904
 11
139.80477995039305
 21
60.92703845341569
  0
LINE
  8
2
 62
     4
  6
continuous
 10
139.67977995039308
 20
61.635371786749019
 11
139.67977995039308
 21
60.80203845341569
  0
LINE
  8
2
 62
     4
  6
continuous
 10
139.67977995039308
 20
61.635371786749019
 11
139.80477995039305
 21
61.51037178674904
  0
LINE
  8
2
 62
     4
  6
continuous
 10
139.80477995039305
 20
60.92703845341569
 11
139.67977995039308
 21
60.80203845341569
  0
LINE
  8
2
 62
     4
  6
continuous
 10
139.80477995039305
 20
61.51037178674904
 11
140.97144661705974
 21
61.51037178674904
  0
LINE
  8
2
 62
     4
  6
continuous
 10
139.80477995039305
 20
60.92703845341569
 11
140.97144661705974
 21
60.92703845341569
  0
LINE
  8
2
 62
     7
  6
line_font22
 10
129.80477995038854
 20
61.218705120082355
 11
142.8881132837264
 21
61.218705120082355
  0
LINE
  8
2
 62
     4
  6
continuous
 10
140.97144661705974
 20
60.80203845341569
 11
130.97144661705519
 21
60.80203845341569
  0
LINE
  8
2
 62
     4
  6
continuous
 10
140.97144661705974
 20
61.635371786749019
 11
130.97144661705519
 21
61.635371786749019
  0
LINE
  8
2
 62
     7
  6
continuous
 10
131.80477995038825
 20
61.635371786748983
 11
131.80477995038851
 21
63.093705120082582
  0
LINE
  8
2
 62
     7
  6
continuous
 10
131.80477995038851
 20
60.260371786749246
 11
131.80477995038871
 21
60.802038453415648
  0
LINE
  8
2
 62
     4
  6
continuous
 10
129.27301346318126
 20
62.652038453415862
 11
128.50321310426173
 21
62.652038453415862
  0
LINE
  8
2
 62
     4
  6
continuous
 10
129.17678841831628
 20
62.318705120082583
 11
128.59943814912666
 21
62.318705120082583
  0
LINE
  8
2
 62
     4
  6
continuous
 10
129.27301346318126
 20
62.374260675638112
 11
129.27301346318126
 21
62.652038453415862
  0
LINE
  8
2
 62
     4
  6
continuous
 10
129.08056337345133
 20
62.374260675638112
 11
129.08056337345133
 21
62.652038453415862
  0
LINE
  8
2
 62
     4
  6
continuous
 10
128.69566319399158
 20
62.374260675638112
 11
128.69566319399158
 21
62.652038453415862
  0
LINE
  8
2
 62
     4
  6
continuous
 10
128.50321310426173
 20
62.374260675638112
 11
128.50321310426173
 21
62.652038453415862
  0
LINE
  8
2
 62
     4
  6
continuous
 10
129.27144661705483
 20
62.652038453415862
 11
129.27144661705483
 21
62.760371786749232
  0
LINE
  8
2
 62
     4
  6
continuous
 10
128.50477995038813
 20
62.652038453415862
 11
128.50477995038813
 21
62.760371786749232
  0
LINE
  8
2
 62
     4
  6
continuous
 10
128.95061328372145
 20
62.652038453415862
 11
128.90894661705482
 21
62.760371786749232
  0
LINE
  8
2
 62
     4
  6
continuous
 10
128.86727995038817
 20
62.652038453415862
 11
128.82561328372151
 21
62.760371786749232
  0
LINE
  8
2
 62
     4
  6
continuous
 10
128.6797799503905
 20
62.318705120081958
 11
128.67977995038851
 21
61.827038453415931
  0
LINE
  8
2
 62
     4
  6
continuous
 10
129.09644661705653
 20
62.318705120081958
 11
129.09644661705516
 21
61.827038453415931
  0
LINE
  8
2
 62
     4
  6
continuous
 10
129.02977995038776
 20
62.318705120081958
 11
129.0297799503885
 21
61.760371786749246
  0
LINE
  8
2
 62
     4
  6
continuous
 10
128.74644661705543
 20
62.318705120081958
 11
128.7464466170552
 21
61.760371786749246
  0
LINE
  8
2
 62
     7
  6
continuous
 10
144.30477995039323
 20
62.84370512008239
 11
144.30477995039323
 21
63.09370512008239
  0
LINE
  8
2
 62
     7
  6
continuous
 10
141.22144661705988
 20
62.760371786749062
 11
144.22144661705991
 21
62.760371786749062
  0
LINE
  8
2
 62
     7
  6
continuous
 10
140.97144661705988
 20
60.34370512008239
 11
140.97144661705988
 21
62.510371786749076
  0
LINE
  8
2
 62
     7
  6
continuous
 10
140.88811328372657
 20
60.260371786749062
 11
140.13811328372657
 21
60.260371786749062
  0
LINE
  8
2
 62
     7
  6
continuous
 10
144.30477995039323
 20
63.09370512008239
 11
140.13811328372657
 21
63.09370512008239
  0
LINE
  8
2
 62
     7
  6
continuous
 10
140.13811328372657
 20
60.260371786749062
 11
140.13811328372645
 21
60.802038453415648
  0
LINE
  8
2
 62
     7
  6
continuous
 10
140.13811328372645
 20
61.635371786748983
 11
140.13811328372657
 21
63.09370512008239
  0
LINE
  8
2
 62
     4
  6
continuous
 10
143.43968012985235
 20
62.652038453415827
 11
142.66987977093282
 21
62.652038453415827
  0
LINE
  8
2
 62
     4
  6
continuous
 10
143.3434550849874
 20
62.318705120082491
 11
142.76610481579772
 21
62.318705120082491
  0
LINE
  8
2
 62
     4
  6
continuous
 10
143.43968012985235
 20
62.374260675638034
 11
143.43968012985235
 21
62.652038453415827
  0
LINE
  8
2
 62
     4
  6
continuous
 10
143.24723004012242
 20
62.374260675638034
 11
143.24723004012242
 21
62.652038453415827
  0
LINE
  8
2
 62
     4
  6
continuous
 10
142.86232986066267
 20
62.374260675638034
 11
142.86232986066267
 21
62.652038453415827
  0
LINE
  8
2
 62
     4
  6
continuous
 10
142.66987977093282
 20
62.374260675638034
 11
142.66987977093282
 21
62.652038453415827
  0
LINE
  8
2
 62
     4
  6
continuous
 10
143.4381132837259
 20
62.652038453415827
 11
143.4381132837259
 21
62.760371786749133
  0
LINE
  8
2
 62
     4
  6
continuous
 10
142.67144661705925
 20
62.652038453415827
 11
142.67144661705925
 21
62.760371786749133
  0
LINE
  8
2
 62
     4
  6
continuous
 10
143.11727995039257
 20
62.652038453415827
 11
143.07561328372591
 21
62.760371786749133
  0
LINE
  8
2
 62
     4
  6
continuous
 10
143.03394661705926
 20
62.652038453415827
 11
142.99227995039257
 21
62.760371786749133
  0
LINE
  8
2
 62
     4
  6
continuous
 10
142.84644661705931
 20
62.318705120083628
 11
142.84644661705971
 21
61.827038453415931
  0
LINE
  8
2
 62
     4
  6
continuous
 10
143.26311328372532
 20
62.318705120083628
 11
143.26311328372637
 21
61.827038453415931
  0
LINE
  8
2
 62
     4
  6
continuous
 10
143.19644661705971
 20
62.318705120083628
 11
143.19644661705971
 21
61.760371786749246
  0
LINE
  8
2
 62
     4
  6
continuous
 10
142.91311328372734
 20
62.318705120083628
 11
142.9131132837264
 21
61.760371786749246
  0
LINE
  8
2
 62
     7
  6
line_font22
 10
214.01311328372597
 20
51.260371786749062
 11
215.97144661706
 21
51.260371786749211
  0
LINE
  8
2
 62
     2
  6
continuous
 10
215.13811328372665
 20
51.510371786749211
 11
214.84644661706
 21
51.51037178674936
  0
LINE
  8
2
 62
     2
  6
continuous
 10
215.13811328372665
 20
51.010371786749211
 11
214.84644661706
 21
51.010371786749062
  0
LINE
  8
2
 62
     3
  6
continuous
 10
206.38811328372188
 20
63.343705120082582
 11
206.38811328372188
 21
63.093705120082582
  0
LINE
  8
2
 62
     3
  6
continuous
 10
206.38811328372188
 20
60.260371786749246
 11
206.38811328372188
 21
59.593705120082582
  0
LINE
  8
2
 62
     7
  6
line_font22
 10
203.88811328372188
 20
63.952038453415931
 11
203.88811328372188
 21
61.510371786749246
  0
LINE
  8
2
 62
     4
  6
continuous
 10
203.47144661705522
 20
63.427038453415918
 11
204.30477995038854
 21
63.427038453415918
  0
LINE
  8
2
 62
     4
  6
continuous
 10
203.47144661705522
 20
63.427038453415918
 11
203.47144661705522
 21
63.343705120082582
  0
LINE
  8
2
 62
     4
  6
continuous
 10
204.30477995038854
 20
63.427038453415918
 11
204.30477995038854
 21
63.343705120082582
  0
LINE
  8
2
 62
     4
  6
continuous
 10
203.51311328372188
 20
63.427038453415918
 11
203.51311328372188
 21
63.515151021930315
  0
LINE
  8
2
 62
     4
  6
continuous
 10
204.26311328372179
 20
63.427038453415918
 11
204.26311328372179
 21
63.515151021930315
  0
LINE
  8
2
 62
     4
  6
continuous
 10
203.67977995038854
 20
61.827038453415931
 11
204.09644661705522
 21
61.827038453415931
  0
LINE
  8
2
 62
     4
  6
continuous
 10
204.09644661705522
 20
61.827038453415931
 11
204.02977995038853
 21
61.760371786749246
  0
LINE
  8
2
 62
     4
  6
continuous
 10
203.74644661705523
 20
61.760371786749246
 11
203.67977995038854
 21
61.827038453415931
  0
LINE
  8
2
 62
     4
  6
continuous
 10
203.74644661705523
 20
61.760371786749246
 11
204.02977995038853
 21
61.760371786749246
  0
LINE
  8
2
 62
     3
  6
continuous
 10
215.55477995039308
 20
63.343705120082582
 11
215.55477995039308
 21
63.093705120082582
  0
LINE
  8
2
 62
     3
  6
continuous
 10
215.55477995039308
 20
60.260371786749246
 11
215.55477995039308
 21
59.593705120082582
  0
LINE
  8
2
 62
     7
  6
line_font22
 10
218.05477995039308
 20
63.952038453415931
 11
218.05477995039308
 21
61.510371786749246
  0
LINE
  8
2
 62
     4
  6
continuous
 10
217.63811328372643
 20
63.427038453415918
 11
218.47144661705977
 21
63.427038453415918
  0
LINE
  8
2
 62
     4
  6
continuous
 10
217.63811328372643
 20
63.427038453415918
 11
217.63811328372643
 21
63.343705120082582
  0
LINE
  8
2
 62
     4
  6
continuous
 10
218.47144661705977
 20
63.427038453415918
 11
218.47144661705977
 21
63.343705120082582
  0
LINE
  8
2
 62
     4
  6
continuous
 10
217.67977995039308
 20
63.427038453415918
 11
217.67977995039308
 21
63.515151021930315
  0
LINE
  8
2
 62
     4
  6
continuous
 10
218.42977995039308
 20
63.427038453415918
 11
218.42977995039308
 21
63.515151021930315
  0
LINE
  8
2
 62
     4
  6
continuous
 10
217.84644661705977
 20
61.827038453415931
 11
218.26311328372643
 21
61.827038453415931
  0
LINE
  8
2
 62
     4
  6
continuous
 10
218.26311328372643
 20
61.827038453415931
 11
218.19644661705973
 21
61.760371786749246
  0
LINE
  8
2
 62
     4
  6
continuous
 10
217.91311328372643
 20
61.760371786749246
 11
217.84644661705977
 21
61.827038453415931
  0
LINE
  8
2
 62
     4
  6
continuous
 10
217.91311328372643
 20
61.760371786749246
 11
218.19644661705973
 21
61.760371786749246
  0
LINE
  8
2
 62
     7
  6
continuous
 10
202.63811328372188
 20
62.843705120082547
 11
202.63811328372188
 21
63.093705120082582
  0
LINE
  8
2
 62
     7
  6
continuous
 10
205.72144661705522
 20
62.760371786749246
 11
202.72144661705522
 21
62.760371786749246
  0
LINE
  8
2
 62
     7
  6
continuous
 10
205.97144661705522
 20
60.343705120082547
 11
205.97144661705522
 21
62.510371786749246
  0
LINE
  8
2
 62
     7
  6
continuous
 10
206.05477995038854
 20
60.260371786749246
 11
206.80477995038854
 21
60.260371786749246
  0
LINE
  8
2
 62
     7
  6
continuous
 10
202.63811328372188
 20
63.093705120082582
 11
206.80477995038854
 21
63.093705120082582
  0
LINE
  8
2
 62
     4
  6
continuous
 10
205.22144661705522
 20
61.832139781096359
 11
205.22144661705522
 21
60.605270459068407
  0
LINE
  8
2
 62
     4
  6
continuous
 10
205.80477995038854
 20
62.093705120082355
 11
205.80477995038854
 21
60.343705120082355
  0
LINE
  8
2
 62
     4
  6
continuous
 10
205.33950217261079
 20
62.036618001434334
 11
205.80477995038854
 21
62.036618001434334
  0
LINE
  8
2
 62
     4
  6
continuous
 10
205.33950217261079
 20
61.627661560758334
 11
205.80477995038854
 21
61.627661560758334
  0
LINE
  8
2
 62
     4
  6
continuous
 10
205.33950217261079
 20
60.809748679406376
 11
205.80477995038854
 21
60.809748679406376
  0
LINE
  8
2
 62
     4
  6
continuous
 10
205.33950217261079
 20
60.400792238730396
 11
205.80477995038854
 21
60.400792238730396
  0
LINE
  8
2
 62
     4
  6
continuous
 10
205.80477995038854
 20
62.093705120082355
 11
205.97144661705522
 21
62.093705120082355
  0
LINE
  8
2
 62
     4
  6
continuous
 10
205.80477995038854
 20
60.343705120082355
 11
205.97144661705522
 21
60.343705120082355
  0
LINE
  8
2
 62
     4
  6
continuous
 10
217.01311328372643
 20
61.832139781096359
 11
217.01311328372643
 21
60.605270459068407
  0
LINE
  8
2
 62
     4
  6
continuous
 10
216.34644661705977
 20
62.036618001434334
 11
216.34644661705977
 21
60.400792238730396
  0
LINE
  8
2
 62
     4
  6
continuous
 10
216.89505772817085
 20
62.036618001434334
 11
216.34644661705977
 21
62.036618001434334
  0
LINE
  8
2
 62
     4
  6
continuous
 10
216.89505772817085
 20
61.627661560758334
 11
216.34644661705977
 21
61.627661560758334
  0
LINE
  8
2
 62
     4
  6
continuous
 10
216.89505772817085
 20
60.809748679406376
 11
216.34644661705977
 21
60.809748679406376
  0
LINE
  8
2
 62
     4
  6
continuous
 10
216.89505772817085
 20
60.400792238730396
 11
216.34644661705977
 21
60.400792238730396
  0
LINE
  8
2
 62
     4
  6
continuous
 10
216.13811328372643
 20
62.093705120082355
 11
216.13811328372643
 21
60.343705120082355
  0
LINE
  8
2
 62
     4
  6
continuous
 10
216.34644661705977
 20
61.985371786749042
 11
216.13811328372643
 21
61.985371786749042
  0
LINE
  8
2
 62
     4
  6
continuous
 10
216.34644661705977
 20
60.452038453415703
 11
216.13811328372643
 21
60.452038453415703
  0
LINE
  8
2
 62
     4
  6
continuous
 10
216.34644661705977
 20
61.343705120082355
 11
216.13811328372643
 21
61.260371786749019
  0
LINE
  8
2
 62
     4
  6
continuous
 10
216.34644661705977
 20
61.17703845341569
 11
216.13811328372643
 21
61.093705120082376
  0
LINE
  8
2
 62
     4
  6
continuous
 10
216.13811328372643
 20
62.093705120082355
 11
215.97144661705977
 21
62.093705120082355
  0
LINE
  8
2
 62
     4
  6
continuous
 10
216.13811328372643
 20
60.343705120082355
 11
215.97144661705977
 21
60.343705120082355
  0
LINE
  8
2
 62
     4
  6
continuous
 10
217.47144661705977
 20
61.51037178674904
 11
217.47144661705977
 21
60.92703845341569
  0
LINE
  8
2
 62
     4
  6
continuous
 10
217.34644661705977
 20
60.80203845341569
 11
217.01311328372643
 21
60.80203845341569
  0
LINE
  8
2
 62
     4
  6
continuous
 10
217.34644661705977
 20
61.635371786749019
 11
217.01311328372643
 21
61.635371786749019
  0
LINE
  8
2
 62
     4
  6
continuous
 10
217.47144661705977
 20
60.92703845341569
 11
217.01311328372643
 21
60.92703845341569
  0
LINE
  8
2
 62
     4
  6
continuous
 10
217.47144661705977
 20
61.51037178674904
 11
217.01311328372643
 21
61.51037178674904
  0
LINE
  8
2
 62
     4
  6
continuous
 10
217.34644661705977
 20
61.635371786749019
 11
217.34644661705977
 21
60.80203845341569
  0
LINE
  8
2
 62
     4
  6
continuous
 10
217.34644661705977
 20
61.635371786749019
 11
217.47144661705977
 21
61.51037178674904
  0
LINE
  8
2
 62
     4
  6
continuous
 10
217.47144661705977
 20
60.92703845341569
 11
217.34644661705977
 21
60.80203845341569
  0
LINE
  8
2
 62
     4
  6
continuous
 10
214.80477995039308
 20
61.51037178674904
 11
214.80477995039308
 21
60.92703845341569
  0
LINE
  8
2
 62
     4
  6
continuous
 10
214.67977995039308
 20
61.635371786749019
 11
214.67977995039308
 21
60.80203845341569
  0
LINE
  8
2
 62
     4
  6
continuous
 10
214.67977995039308
 20
61.635371786749019
 11
214.80477995039308
 21
61.51037178674904
  0
LINE
  8
2
 62
     4
  6
continuous
 10
214.80477995039308
 20
60.92703845341569
 11
214.67977995039308
 21
60.80203845341569
  0
LINE
  8
2
 62
     4
  6
continuous
 10
214.80477995039308
 20
61.51037178674904
 11
215.97144661705977
 21
61.51037178674904
  0
LINE
  8
2
 62
     4
  6
continuous
 10
214.80477995039308
 20
60.92703845341569
 11
215.97144661705977
 21
60.92703845341569
  0
LINE
  8
2
 62
     7
  6
line_font22
 10
204.80477995038854
 20
61.218705120082355
 11
217.88811328372643
 21
61.218705120082355
  0
LINE
  8
2
 62
     4
  6
continuous
 10
215.97144661705977
 20
60.80203845341569
 11
205.97144661705522
 21
60.80203845341569
  0
LINE
  8
2
 62
     4
  6
continuous
 10
215.97144661705977
 20
61.635371786749019
 11
205.97144661705522
 21
61.635371786749019
  0
LINE
  8
2
 62
     7
  6
continuous
 10
206.80477995038825
 20
61.635371786748983
 11
206.80477995038854
 21
63.093705120082582
  0
LINE
  8
2
 62
     7
  6
continuous
 10
206.80477995038854
 20
60.260371786749246
 11
206.80477995038871
 21
60.802038453415648
  0
LINE
  8
2
 62
     4
  6
continuous
 10
204.27301346318126
 20
62.652038453415862
 11
203.50321310426173
 21
62.652038453415862
  0
LINE
  8
2
 62
     4
  6
continuous
 10
204.17678841831633
 20
62.318705120082583
 11
203.59943814912666
 21
62.318705120082583
  0
LINE
  8
2
 62
     4
  6
continuous
 10
204.27301346318126
 20
62.374260675638112
 11
204.27301346318126
 21
62.652038453415862
  0
LINE
  8
2
 62
     4
  6
continuous
 10
204.08056337345135
 20
62.374260675638112
 11
204.08056337345135
 21
62.652038453415862
  0
LINE
  8
2
 62
     4
  6
continuous
 10
203.69566319399158
 20
62.374260675638112
 11
203.69566319399158
 21
62.652038453415862
  0
LINE
  8
2
 62
     4
  6
continuous
 10
203.50321310426173
 20
62.374260675638112
 11
203.50321310426173
 21
62.652038453415862
  0
LINE
  8
2
 62
     4
  6
continuous
 10
204.27144661705486
 20
62.652038453415862
 11
204.27144661705486
 21
62.760371786749232
  0
LINE
  8
2
 62
     4
  6
continuous
 10
203.50477995038813
 20
62.652038453415862
 11
203.50477995038813
 21
62.760371786749232
  0
LINE
  8
2
 62
     4
  6
continuous
 10
203.95061328372151
 20
62.652038453415862
 11
203.90894661705482
 21
62.760371786749232
  0
LINE
  8
2
 62
     4
  6
continuous
 10
203.86727995038817
 20
62.652038453415862
 11
203.82561328372151
 21
62.760371786749232
  0
LINE
  8
2
 62
     4
  6
continuous
 10
203.67977995039053
 20
62.318705120081958
 11
203.67977995038854
 21
61.827038453415931
  0
LINE
  8
2
 62
     4
  6
continuous
 10
204.09644661705659
 20
62.318705120081958
 11
204.09644661705522
 21
61.827038453415931
  0
LINE
  8
2
 62
     4
  6
continuous
 10
204.02977995038776
 20
62.318705120081958
 11
204.02977995038853
 21
61.760371786749246
  0
LINE
  8
2
 62
     4
  6
continuous
 10
203.74644661705545
 20
62.318705120081958
 11
203.74644661705523
 21
61.760371786749246
  0
LINE
  8
2
 62
     7
  6
continuous
 10
219.30477995039325
 20
62.84370512008239
 11
219.30477995039325
 21
63.09370512008239
  0
LINE
  8
2
 62
     7
  6
continuous
 10
216.22144661705991
 20
62.760371786749062
 11
219.22144661705991
 21
62.760371786749062
  0
LINE
  8
2
 62
     7
  6
continuous
 10
215.97144661705991
 20
60.34370512008239
 11
215.97144661705991
 21
62.510371786749076
  0
LINE
  8
2
 62
     7
  6
continuous
 10
215.88811328372657
 20
60.260371786749062
 11
215.13811328372657
 21
60.260371786749062
  0
LINE
  8
2
 62
     7
  6
continuous
 10
219.30477995039325
 20
63.09370512008239
 11
215.13811328372657
 21
63.09370512008239
  0
LINE
  8
2
 62
     7
  6
continuous
 10
215.13811328372657
 20
60.260371786749062
 11
215.13811328372651
 21
60.802038453415648
  0
LINE
  8
2
 62
     7
  6
continuous
 10
215.13811328372651
 20
61.635371786748983
 11
215.13811328372657
 21
63.09370512008239
  0
LINE
  8
2
 62
     4
  6
continuous
 10
218.43968012985241
 20
62.652038453415827
 11
217.66987977093288
 21
62.652038453415827
  0
LINE
  8
2
 62
     4
  6
continuous
 10
218.34345508498748
 20
62.318705120082491
 11
217.7661048157978
 21
62.318705120082491
  0
LINE
  8
2
 62
     4
  6
continuous
 10
218.43968012985241
 20
62.374260675638034
 11
218.43968012985241
 21
62.652038453415827
  0
LINE
  8
2
 62
     4
  6
continuous
 10
218.24723004012247
 20
62.374260675638034
 11
218.24723004012247
 21
62.652038453415827
  0
LINE
  8
2
 62
     4
  6
continuous
 10
217.86232986066273
 20
62.374260675638034
 11
217.86232986066273
 21
62.652038453415827
  0
LINE
  8
2
 62
     4
  6
continuous
 10
217.66987977093288
 20
62.374260675638034
 11
217.66987977093288
 21
62.652038453415827
  0
LINE
  8
2
 62
     4
  6
continuous
 10
218.43811328372593
 20
62.652038453415827
 11
218.43811328372593
 21
62.760371786749133
  0
LINE
  8
2
 62
     4
  6
continuous
 10
217.67144661705927
 20
62.652038453415827
 11
217.67144661705927
 21
62.760371786749133
  0
LINE
  8
2
 62
     4
  6
continuous
 10
218.11727995039263
 20
62.652038453415827
 11
218.07561328372597
 21
62.760371786749133
  0
LINE
  8
2
 62
     4
  6
continuous
 10
218.03394661705931
 20
62.652038453415827
 11
217.99227995039263
 21
62.760371786749133
  0
LINE
  8
2
 62
     4
  6
continuous
 10
217.84644661705937
 20
62.318705120083628
 11
217.84644661705977
 21
61.827038453415931
  0
LINE
  8
2
 62
     4
  6
continuous
 10
218.26311328372537
 20
62.318705120083628
 11
218.26311328372643
 21
61.827038453415931
  0
LINE
  8
2
 62
     4
  6
continuous
 10
218.19644661705973
 20
62.318705120083628
 11
218.19644661705973
 21
61.760371786749246
  0
LINE
  8
2
 62
     4
  6
continuous
 10
217.91311328372734
 20
62.318705120083628
 11
217.91311328372643
 21
61.760371786749246
  0
LINE
  8
2
 62
     7
  6
continuous
 10
205.13811328372628
 20
42.927038453415904
 11
208.4714466170596
 21
42.927038453415904
  0
LINE
  8
2
 62
     7
  6
continuous
 10
208.4714466170596
 20
43.760371786749239
 11
208.4714466170596
 21
42.927038453415904
  0
LINE
  8
2
 62
     7
  6
continuous
 10
213.4714466170596
 20
42.927038453415904
 11
213.4714466170596
 21
42.093705120082575
  0
LINE
  8
2
 62
     7
  6
continuous
 10
208.4714466170596
 20
43.760371786749239
 11
213.4714466170596
 21
42.093705120082575
  0
LINE
  8
2
 62
     7
  6
continuous
 10
213.4714466170596
 20
42.927038453415904
 11
216.80477995039294
 21
42.927038453415904
  0
LINE
  8
2
 62
     6
  6
continuous
 10
207.09644661705946
 20
42.927038453415868
 11
207.09644661705946
 21
60.80203845341569
  0
LINE
  8
2
 62
     6
  6
continuous
 10
206.8047799503928
 20
42.927038453415868
 11
206.80477995039286
 21
60.260371786750198
  0
LINE
  8
2
 62
     6
  6
continuous
 10
215.13811328372665
 20
42.927038453415868
 11
215.13811328372657
 21
60.260371786748493
  0
LINE
  8
2
 62
     7
  6
continuous
 10
172.63811328372611
 20
64.177038453415875
 11
172.63811328372611
 21
62.718705120082547
  0
LINE
  8
2
 62
     7
  6
continuous
 10
173.26311328372611
 20
62.718705120082547
 11
172.63811328372611
 21
62.718705120082547
  0
LINE
  8
2
 62
     7
  6
continuous
 10
172.63811328372611
 20
60.218705120082547
 11
172.01311328372611
 21
60.218705120082547
  0
LINE
  8
2
 62
     7
  6
continuous
 10
173.26311328372611
 20
62.718705120082547
 11
172.01311328372611
 21
60.218705120082547
  0
LINE
  8
2
 62
     7
  6
continuous
 10
172.63811328372611
 20
60.218705120082547
 11
172.63811328372611
 21
58.760371786749211
  0
LINE
  8
2
 62
     7
  6
continuous
 10
174.3047799503928
 20
64.177038453415875
 11
174.3047799503928
 21
62.718705120082547
  0
LINE
  8
2
 62
     7
  6
continuous
 10
174.9297799503928
 20
62.718705120082547
 11
174.3047799503928
 21
62.718705120082547
  0
LINE
  8
2
 62
     7
  6
continuous
 10
174.3047799503928
 20
60.218705120082547
 11
173.6797799503928
 21
60.218705120082547
  0
LINE
  8
2
 62
     7
  6
continuous
 10
174.9297799503928
 20
62.718705120082547
 11
173.6797799503928
 21
60.218705120082547
  0
LINE
  8
2
 62
     7
  6
continuous
 10
174.3047799503928
 20
60.218705120082547
 11
174.3047799503928
 21
58.760371786749211
  0
LINE
  8
2
 62
     3
  6
continuous
 10
140.5547799503926
 20
59.593705120082504
 11
172.63811328372697
 21
59.593705120082547
  0
LINE
  8
2
 62
     3
  6
continuous
 10
174.30477995039362
 20
59.593705120082547
 11
206.38811328372188
 21
59.593705120082582
  0
LINE
  8
2
 62
     3
  6
continuous
 10
140.5547799503926
 20
63.343705120082547
 11
172.63811328372697
 21
63.343705120082547
  0
LINE
  8
2
 62
     3
  6
continuous
 10
174.30477995039362
 20
63.343705120082547
 11
206.38811328372188
 21
63.343705120082582
  0
LINE
  8
2
 62
     3
  6
continuous
 10
140.5547799503926
 20
59.777038453415898
 11
172.63811328372697
 21
59.77703845341594
  0
LINE
  8
2
 62
     3
  6
continuous
 10
174.30477995039362
 20
59.77703845341594
 11
206.38811328372188
 21
59.777038453415898
  0
LINE
  8
2
 62
     3
  6
continuous
 10
140.5547799503926
 20
60.093705120082696
 11
172.63811328372697
 21
60.093705120082618
  0
LINE
  8
2
 62
     3
  6
continuous
 10
174.30477995039362
 20
60.093705120082618
 11
206.38811328372188
 21
60.093705120082582
  0
LINE
  8
2
 62
     3
  6
continuous
 10
140.55477995039263
 20
63.093705120082433
 11
172.63811328372697
 21
63.093705120082468
  0
LINE
  8
2
 62
     3
  6
continuous
 10
174.30477995039362
 20
63.093705120082468
 11
202.63811328372219
 21
63.093705120082504
  0
LINE
  8
2
 62
     7
  6
line_font22
 10
77.098830755567406
 20
51.260371786749154
 11
78.43216408890072
 21
51.260371786749154
  0
LINE
  8
2
 62
     6
  6
continuous
 10
74.065497422234358
 20
48.914522065367407
 11
74.065497422234358
 21
53.081188732034121
  0
LINE
  8
2
 62
     6
  6
continuous
 10
81.465497422234193
 20
53.606221508130893
 11
81.465497422234208
 21
49.439554841464151
  0
LINE
  8
2
 62
     7
  6
line_font22
 10
67.348830755567406
 20
39.052038453415832
 11
67.348830755567406
 21
41.802038453415832
  0
LINE
  8
2
 62
     7
  6
line_font22
 10
65.973830755567406
 20
40.427038453415832
 11
68.723830755567406
 21
40.427038453415832
  0
LINE
  8
2
 62
     7
  6
line_font28
 10
93.182164088900791
 20
47.093705120082497
 11
94.432164088900791
 21
45.843705120082497
  0
LINE
  8
2
 62
     7
  6
line_font28
 10
62.348830755567406
 20
47.093705120082461
 11
93.182164088900791
 21
47.093705120082497
  0
LINE
  8
2
 62
     7
  6
line_font28
 10
62.348830755567406
 20
47.093705120082461
 11
61.098830755567406
 21
45.843705120082461
  0
LINE
  8
2
 62
     7
  6
line_font22
 10
76.473830755567406
 20
61.343714195110678
 11
79.05716408890072
 21
61.343705120082468
  0
LINE
  8
2
 62
     4
  6
continuous
 10
77.765497422234063
 20
60.525792238730475
 11
78.473830755567406
 21
60.934748679406454
  0
LINE
  8
2
 62
     4
  6
continuous
 10
78.473830755567406
 20
60.934748679406454
 11
78.473830755567406
 21
61.752661560758469
  0
LINE
  8
2
 62
     4
  6
continuous
 10
78.473830755567406
 20
61.752661560758469
 11
77.765497422234063
 21
62.161618001434427
  0
LINE
  8
2
 62
     4
  6
continuous
 10
77.765497422234063
 20
62.161618001434427
 11
77.057164088900734
 21
61.752661560758469
  0
LINE
  8
2
 62
     4
  6
continuous
 10
77.057164088900734
 20
61.752661560758469
 11
77.057164088900734
 21
60.934748679406454
  0
LINE
  8
2
 62
     4
  6
continuous
 10
77.057164088900734
 20
60.934748679406454
 11
77.765497422234063
 21
60.525792238730475
  0
LINE
  8
2
 62
     7
  6
line_font22
 10
76.515497422234063
 20
63.952038453415781
 11
76.515497422234063
 21
61.510371786749097
  0
LINE
  8
2
 62
     4
  6
continuous
 10
76.932164088900734
 20
63.427038453415804
 11
76.098830755567406
 21
63.427038453415804
  0
LINE
  8
2
 62
     4
  6
continuous
 10
76.932164088900734
 20
63.427038453415804
 11
76.932164088900734
 21
63.343705120082468
  0
LINE
  8
2
 62
     4
  6
continuous
 10
76.098830755567406
 20
63.427038453415804
 11
76.098830755567406
 21
63.343705120082468
  0
LINE
  8
2
 62
     4
  6
continuous
 10
76.890497422234063
 20
63.427038453415804
 11
76.890497422234063
 21
63.515151021930258
  0
LINE
  8
2
 62
     4
  6
continuous
 10
76.140497422234048
 20
63.427038453415804
 11
76.140497422234048
 21
63.515151021930258
  0
LINE
  8
2
 62
     4
  6
continuous
 10
76.657164088900757
 20
61.760371786749133
 11
76.373830755567411
 21
61.760371786749133
  0
LINE
  8
2
 62
     4
  6
continuous
 10
76.723830755567406
 20
62.156603136778045
 11
76.723830755567406
 21
61.827038453415817
  0
LINE
  8
2
 62
     4
  6
continuous
 10
76.307164088900734
 20
62.156603136778045
 11
76.307164088900734
 21
61.827038453415817
  0
LINE
  8
2
 62
     4
  6
continuous
 10
76.723830755567406
 20
61.827038453415817
 11
76.307164088900734
 21
61.827038453415817
  0
LINE
  8
2
 62
     4
  6
continuous
 10
76.373830755567411
 20
62.152038453415827
 11
76.373830755567411
 21
61.760371786749133
  0
LINE
  8
2
 62
     4
  6
continuous
 10
76.657164088900757
 20
62.152038453415827
 11
76.657164088900757
 21
61.760371786749133
  0
LINE
  8
2
 62
     4
  6
continuous
 10
76.307164088900734
 20
61.827038453415817
 11
76.373830755567411
 21
61.760371786749133
  0
LINE
  8
2
 62
     4
  6
continuous
 10
76.657164088900757
 20
61.760371786749133
 11
76.723830755567406
 21
61.827038453415817
  0
LINE
  8
2
 62
     7
  6
line_font22
 10
79.015497422234063
 20
63.952038453415781
 11
79.015497422234063
 21
61.510371786749097
  0
LINE
  8
2
 62
     4
  6
continuous
 10
79.432164088900691
 20
63.427038453415804
 11
78.598830755567406
 21
63.427038453415804
  0
LINE
  8
2
 62
     4
  6
continuous
 10
79.432164088900691
 20
63.427038453415804
 11
79.432164088900691
 21
63.343705120082468
  0
LINE
  8
2
 62
     4
  6
continuous
 10
78.598830755567406
 20
63.427038453415804
 11
78.598830755567406
 21
63.343705120082468
  0
LINE
  8
2
 62
     4
  6
continuous
 10
79.390497422234063
 20
63.427038453415804
 11
79.390497422234063
 21
63.515151021930258
  0
LINE
  8
2
 62
     4
  6
continuous
 10
78.640497422234048
 20
63.427038453415804
 11
78.640497422234048
 21
63.515151021930258
  0
LINE
  8
2
 62
     4
  6
continuous
 10
79.157164088900757
 20
61.760371786749133
 11
78.873830755567411
 21
61.760371786749133
  0
LINE
  8
2
 62
     4
  6
continuous
 10
79.223830755567363
 20
62.156603136778045
 11
79.223830755567363
 21
61.827038453415817
  0
LINE
  8
2
 62
     4
  6
continuous
 10
78.807164088900734
 20
62.156603136778045
 11
78.807164088900734
 21
61.827038453415817
  0
LINE
  8
2
 62
     4
  6
continuous
 10
79.223830755567363
 20
61.827038453415817
 11
78.807164088900734
 21
61.827038453415817
  0
LINE
  8
2
 62
     4
  6
continuous
 10
78.873830755567411
 20
62.152038453415827
 11
78.873830755567411
 21
61.760371786749133
  0
LINE
  8
2
 62
     4
  6
continuous
 10
79.157164088900757
 20
62.152038453415827
 11
79.157164088900757
 21
61.760371786749133
  0
LINE
  8
2
 62
     4
  6
continuous
 10
78.807164088900734
 20
61.827038453415817
 11
78.873830755567411
 21
61.760371786749133
  0
LINE
  8
2
 62
     4
  6
continuous
 10
79.157164088900757
 20
61.760371786749133
 11
79.223830755567363
 21
61.827038453415817
  0
LINE
  8
2
 62
     4
  6
continuous
 10
76.898830755567417
 20
62.48537178674912
 11
76.132164088900723
 21
62.48537178674912
  0
LINE
  8
2
 62
     4
  6
continuous
 10
76.898830755567417
 20
62.48537178674912
 11
76.898830755567417
 21
62.593705120082468
  0
LINE
  8
2
 62
     4
  6
continuous
 10
76.132164088900723
 20
62.48537178674912
 11
76.132164088900723
 21
62.593705120082468
  0
LINE
  8
2
 62
     4
  6
continuous
 10
76.577997422234063
 20
62.48537178674912
 11
76.536330755567406
 21
62.593705120082468
  0
LINE
  8
2
 62
     4
  6
continuous
 10
76.494664088900734
 20
62.48537178674912
 11
76.452997422234048
 21
62.593705120082468
  0
LINE
  8
2
 62
     4
  6
continuous
 10
76.682164088900734
 20
62.152038453415827
 11
76.348830755567377
 21
62.152038453415827
  0
LINE
  8
2
 62
     4
  6
continuous
 10
76.515497422234063
 20
62.248263498280707
 11
76.515497422234063
 21
62.48537178674912
  0
LINE
  8
2
 62
     4
  6
continuous
 10
76.848830755567406
 20
62.248263498280707
 11
76.848830755567406
 21
62.48537178674912
  0
LINE
  8
2
 62
     4
  6
continuous
 10
76.182164088900734
 20
62.248263498280707
 11
76.182164088900734
 21
62.48537178674912
  0
LINE
  8
2
 62
     4
  6
continuous
 10
79.398830755567388
 20
62.48537178674912
 11
78.632164088900723
 21
62.48537178674912
  0
LINE
  8
2
 62
     4
  6
continuous
 10
79.398830755567388
 20
62.48537178674912
 11
79.398830755567388
 21
62.593705120082468
  0
LINE
  8
2
 62
     4
  6
continuous
 10
78.632164088900723
 20
62.48537178674912
 11
78.632164088900723
 21
62.593705120082468
  0
LINE
  8
2
 62
     4
  6
continuous
 10
79.077997422234063
 20
62.48537178674912
 11
79.036330755567406
 21
62.593705120082468
  0
LINE
  8
2
 62
     4
  6
continuous
 10
78.994664088900734
 20
62.48537178674912
 11
78.952997422234048
 21
62.593705120082468
  0
LINE
  8
2
 62
     4
  6
continuous
 10
79.182164088900734
 20
62.152038453415827
 11
78.848830755567377
 21
62.152038453415827
  0
LINE
  8
2
 62
     4
  6
continuous
 10
79.015497422234063
 20
62.248263498280707
 11
79.015497422234063
 21
62.48537178674912
  0
LINE
  8
2
 62
     4
  6
continuous
 10
79.348830755567406
 20
62.248263498280707
 11
79.348830755567406
 21
62.48537178674912
  0
LINE
  8
2
 62
     4
  6
continuous
 10
78.682164088900734
 20
62.248263498280707
 11
78.682164088900734
 21
62.48537178674912
  0
LINE
  8
2
 62
     3
  6
continuous
 10
106.30403159649089
 20
59.593705120082582
 11
110.47069826315756
 21
59.593705120082582
  0
LINE
  8
2
 62
     3
  6
continuous
 10
106.30403159649089
 20
63.343705120082582
 11
110.47069826315756
 21
63.343705120082582
  0
LINE
  8
2
 62
     3
  6
continuous
 10
106.63736492982423
 20
63.093705120082582
 11
110.47069826315756
 21
63.093705120082582
  0
LINE
  8
2
 62
     3
  6
continuous
 10
106.63736492982423
 20
59.777038453415898
 11
110.47069826315756
 21
59.777038453415898
  0
LINE
  8
2
 62
     3
  6
continuous
 10
106.63736492982423
 20
60.093705120082582
 11
110.47069826315756
 21
60.093705120082582
  0
LINE
  8
2
 62
     2
  6
continuous
 10
106.30403159649089
 20
63.343705120082582
 11
106.30403159649089
 21
59.593705120082582
  0
LINE
  8
2
 62
     2
  6
continuous
 10
106.63736492982423
 20
63.343705120082582
 11
106.63736492982423
 21
59.593705120082582
  0
LINE
  8
2
 62
     3
  6
continuous
 10
112.1373649298242
 20
59.593705120082547
 11
131.38811328372185
 21
59.593705120082582
  0
LINE
  8
2
 62
     3
  6
continuous
 10
112.1373649298242
 20
63.343705120082547
 11
131.38811328372185
 21
63.343705120082582
  0
LINE
  8
2
 62
     3
  6
continuous
 10
112.1373649298242
 20
59.777038453415898
 11
131.38811328372185
 21
59.777038453415898
  0
LINE
  8
2
 62
     3
  6
continuous
 10
112.1373649298242
 20
60.093705120082582
 11
131.38811328372185
 21
60.093705120082582
  0
LINE
  8
2
 62
     3
  6
continuous
 10
112.1373649298242
 20
63.093705120082504
 11
127.63811328372213
 21
63.093705120082504
  0
LINE
  8
2
 62
     7
  6
continuous
 10
110.47069826315756
 20
64.177038453415918
 11
110.47069826315756
 21
62.718705120082582
  0
LINE
  8
2
 62
     7
  6
continuous
 10
111.09569826315756
 20
62.718705120082582
 11
110.47069826315756
 21
62.718705120082582
  0
LINE
  8
2
 62
     7
  6
continuous
 10
110.47069826315756
 20
60.218705120082582
 11
109.84569826315756
 21
60.218705120082582
  0
LINE
  8
2
 62
     7
  6
continuous
 10
111.09569826315756
 20
62.718705120082582
 11
109.84569826315756
 21
60.218705120082582
  0
LINE
  8
2
 62
     7
  6
continuous
 10
110.47069826315756
 20
60.218705120082582
 11
110.47069826315756
 21
58.760371786749246
  0
LINE
  8
2
 62
     7
  6
continuous
 10
112.13736492982423
 20
64.177038453415918
 11
112.13736492982423
 21
62.718705120082582
  0
LINE
  8
2
 62
     7
  6
continuous
 10
112.76236492982423
 20
62.718705120082582
 11
112.13736492982423
 21
62.718705120082582
  0
LINE
  8
2
 62
     7
  6
continuous
 10
112.13736492982423
 20
60.218705120082582
 11
111.51236492982423
 21
60.218705120082582
  0
LINE
  8
2
 62
     7
  6
continuous
 10
112.76236492982423
 20
62.718705120082582
 11
111.51236492982423
 21
60.218705120082582
  0
LINE
  8
2
 62
     7
  6
continuous
 10
112.13736492982423
 20
60.218705120082582
 11
112.13736492982423
 21
58.760371786749246
  0
LINE
  8
2
 62
     7
  6
continuous
 10
234.82192287679143
 20
64.177038453415605
 11
234.82192287679143
 21
62.718705120082276
  0
LINE
  8
2
 62
     7
  6
continuous
 10
235.44692287679143
 20
62.718705120082276
 11
234.82192287679143
 21
62.718705120082276
  0
LINE
  8
2
 62
     7
  6
continuous
 10
234.82192287679143
 20
60.218705120082276
 11
234.19692287679143
 21
60.218705120082276
  0
LINE
  8
2
 62
     7
  6
continuous
 10
235.44692287679143
 20
62.718705120082276
 11
234.19692287679143
 21
60.218705120082276
  0
LINE
  8
2
 62
     7
  6
continuous
 10
234.82192287679143
 20
60.218705120082276
 11
234.82192287679143
 21
58.760371786748948
  0
LINE
  8
2
 62
     3
  6
continuous
 10
234.82192287679158
 20
59.593705120082603
 11
215.55477995039331
 21
59.593705120082603
  0
LINE
  8
2
 62
     3
  6
continuous
 10
234.82192287679158
 20
63.343705120082582
 11
215.55477995039331
 21
63.343705120082582
  0
LINE
  8
2
 62
     3
  6
continuous
 10
234.82192287679158
 20
59.777038453415898
 11
215.55477995039331
 21
59.777038453415898
  0
LINE
  8
2
 62
     3
  6
continuous
 10
234.82192287679158
 20
60.093705120082582
 11
215.55477995039331
 21
60.093705120082582
  0
LINE
  8
2
 62
     3
  6
continuous
 10
234.82192287679158
 20
63.093705120082639
 11
215.55477995039331
 21
63.093705120082618
  0
LINE
  8
2
 62
     3
  6
continuous
 10
250.16450096626829
 20
63.343705120082547
 11
244.74783429960161
 21
63.343705120082547
  0
LINE
  8
2
 62
     3
  6
continuous
 10
250.58116763293495
 20
62.927038453415875
 11
250.58116763293495
 21
59.593705120082547
  0
LINE
  8
2
 62
     3
  6
continuous
 10
250.58116763293495
 20
59.593705120082547
 11
250.41450096626829
 21
59.593705120082547
  0
LINE
  8
2
 62
     3
  6
continuous
 10
244.33116763293495
 20
62.927038453415875
 11
244.33116763293495
 21
59.593705120082547
  0
LINE
  8
2
 62
     3
  6
continuous
 10
244.49783429960161
 20
59.593705120082547
 11
244.49783429960161
 21
59.777038453415898
  0
LINE
  8
2
 62
     3
  6
continuous
 10
250.41450096626829
 20
62.843705120082547
 11
250.41450096626829
 21
60.093705120082547
  0
LINE
  8
2
 62
     3
  6
continuous
 10
244.74783429960161
 20
63.093705120082547
 11
250.16450096626829
 21
63.093705120082547
  0
LINE
  8
2
 62
     3
  6
continuous
 10
250.41450096626829
 20
59.777038453415898
 11
250.33116763293495
 21
59.777038453415898
  0
LINE
  8
2
 62
     3
  6
continuous
 10
250.20616763293495
 20
60.093705120082547
 11
250.41450096626829
 21
60.093705120082547
  0
LINE
  8
2
 62
     3
  6
continuous
 10
244.58116763293495
 20
59.777038453415898
 11
244.49783429960161
 21
59.777038453415898
  0
LINE
  8
2
 62
     3
  6
continuous
 10
244.70616763293495
 20
60.093705120082547
 11
244.49783429960161
 21
60.093705120082547
  0
LINE
  8
2
 62
     3
  6
continuous
 10
244.49783429960161
 20
62.843705120082547
 11
244.49783429960161
 21
60.093705120082547
  0
LINE
  8
2
 62
     3
  6
continuous
 10
250.41450096626829
 20
59.777038453415898
 11
250.41450096626829
 21
59.593705120082547
  0
LINE
  8
2
 62
     3
  6
continuous
 10
244.49783429960161
 20
59.593705120082547
 11
244.33116763293495
 21
59.593705120082547
  0
LINE
  8
2
 62
     7
  6
line_font22
 10
246.08116763293458
 20
62.62703845341585
 11
246.08116763293458
 21
65.01037178674909
  0
LINE
  8
2
 62
     4
  6
continuous
 10
246.41450096626789
 20
63.093705120082447
 11
246.41450096626789
 21
63.060541872488017
  0
LINE
  8
2
 62
     4
  6
continuous
 10
245.74783429960124
 20
63.093705120082447
 11
245.74783429960124
 21
63.060541872488017
  0
LINE
  8
2
 62
     4
  6
continuous
 10
248.49783429960206
 20
63.093705120082447
 11
248.49783429960206
 21
63.060541872488017
  0
LINE
  8
2
 62
     4
  6
continuous
 10
249.16450096626866
 20
63.093705120082447
 11
249.16450096626866
 21
63.060541872488017
  0
LINE
  8
2
 62
     4
  6
line_font21
 10
245.97283429960123
 20
64.180082108130676
 11
245.97283429960123
 21
63.093705120082447
  0
LINE
  8
2
 62
     4
  6
line_font21
 10
245.91450096626789
 20
64.03388862949231
 11
245.91450096626789
 21
63.093705120082447
  0
LINE
  8
2
 62
     4
  6
line_font21
 10
246.18950096626793
 20
64.180082108130676
 11
246.18950096626793
 21
63.093705120082447
  0
LINE
  8
2
 62
     4
  6
line_font21
 10
246.24783429960115
 20
64.03388862949231
 11
246.24783429960115
 21
63.093705120082447
  0
LINE
  8
2
 62
     4
  6
line_font21
 10
248.66450096626866
 20
64.03388862949231
 11
248.66450096626866
 21
63.093705120082447
  0
LINE
  8
2
 62
     7
  6
line_font22
 10
248.83116763293532
 20
62.62703845341585
 11
248.83116763293532
 21
65.01037178674909
  0
LINE
  8
2
 62
     4
  6
line_font21
 10
248.72283429960206
 20
64.180082108130676
 11
248.72283429960206
 21
63.093705120082447
  0
LINE
  8
2
 62
     4
  6
line_font21
 10
248.93950096626867
 20
64.180082108130676
 11
248.93950096626867
 21
63.093705120082447
  0
LINE
  8
2
 62
     4
  6
line_font21
 10
248.99783429960206
 20
64.03388862949231
 11
248.99783429960206
 21
63.093705120082447
  0
LINE
  8
2
 62
     7
  6
line_font28
 10
106.30403159649103
 20
47.093705120082497
 11
233.98858954345826
 21
47.093705120082532
  0
LINE
  8
2
 62
     6
  6
continuous
 10
207.09644661705954
 20
61.635371786748983
 11
207.0964466170596
 21
85.876303532921355
  0
LINE
  8
2
 62
     6
  6
continuous
 10
206.80477995039286
 20
63.09370512008239
 11
206.80477995039294
 21
85.876303532921355
  0
LINE
  8
2
 62
     6
  6
continuous
 10
215.13811328372657
 20
63.09370512008239
 11
215.13811328372651
 21
85.876303532921355
  0
LINE
  8
2
 62
     6
  6
continuous
 10
214.84644661706
 20
61.635371786748983
 11
214.84644661705983
 21
85.876303532921355
  0
LINE
  8
2
 62
     7
  6
line_font22
 10
204.72144661705968
 20
96.717554869775782
 11
217.22144661705968
 21
96.717554869775782
  0
LINE
  8
2
 62
     6
  6
continuous
 10
207.09644661705968
 20
100.16755486977571
 11
207.09644661705977
 21
93.267554869775736
  0
LINE
  8
2
 62
     6
  6
continuous
 10
207.34644661705968
 20
100.41755486977571
 11
214.59644661705977
 21
100.41755486977576
  0
LINE
  8
2
 62
     6
  6
continuous
 10
214.84644661705977
 20
100.16755486977576
 11
214.84644661705977
 21
93.267554869775736
  0
LINE
  8
2
 62
     6
  6
continuous
 10
207.05477995039308
 20
100.88422153644241
 11
214.88811328372643
 21
100.88422153644241
  0
LINE
  8
2
 62
     6
  6
continuous
 10
207.05477995039308
 20
92.550888203109082
 11
214.88811328372643
 21
92.550888203109082
  0
LINE
  8
2
 62
     6
  6
continuous
 10
215.13811328372643
 20
92.800888203109082
 11
215.13811328372643
 21
94.609221536441225
  0
LINE
  8
2
 62
     6
  6
continuous
 10
215.13811328372643
 20
96.692554869775122
 11
215.13811328372643
 21
94.659221536443411
  0
LINE
  8
2
 62
     6
  6
continuous
 10
206.80477995039308
 20
92.800888203109082
 11
206.80477995039308
 21
94.609221536441567
  0
LINE
  8
2
 62
     6
  6
continuous
 10
206.80477995039308
 20
96.69255486977444
 11
206.80477995039308
 21
94.659221536443184
  0
LINE
  8
2
 62
     6
  6
continuous
 10
206.80477995039308
 20
98.775888203106945
 11
206.80477995039308
 21
96.74255486977728
  0
LINE
  8
2
 62
     6
  6
continuous
 10
206.80477995039308
 20
100.63422153644241
 11
206.80477995039308
 21
98.825888203110154
  0
LINE
  8
2
 62
     6
  6
continuous
 10
214.59644661705977
 20
93.017554869775736
 11
207.34644661705977
 21
93.017554869775736
  0
LINE
  8
2
 62
     6
  6
continuous
 10
215.11311328372642
 20
96.717554869776848
 11
215.13811328372643
 21
96.742554869775375
  0
LINE
  8
2
 62
     6
  6
continuous
 10
215.11311328372642
 20
96.717554869776848
 11
215.13811328372643
 21
96.692554869775122
  0
LINE
  8
2
 62
     6
  6
continuous
 10
215.11311328372642
 20
94.634221536443704
 11
215.13811328372643
 21
94.609221536441225
  0
LINE
  8
2
 62
     6
  6
continuous
 10
215.11311328372642
 20
94.634221536443704
 11
215.13811328372643
 21
94.659221536443411
  0
LINE
  8
2
 62
     6
  6
continuous
 10
206.82977995039303
 20
94.634221536443661
 11
206.80477995039308
 21
94.609221536441567
  0
LINE
  8
2
 62
     6
  6
continuous
 10
206.82977995039303
 20
94.634221536443661
 11
206.80477995039308
 21
94.659221536443184
  0
LINE
  8
2
 62
     6
  6
continuous
 10
206.82977995039303
 20
96.717554869776691
 11
206.80477995039308
 21
96.69255486977444
  0
LINE
  8
2
 62
     6
  6
continuous
 10
206.82977995039303
 20
96.717554869776691
 11
206.80477995039308
 21
96.74255486977728
  0
LINE
  8
2
 62
     7
  6
continuous
 10
205.13811328372634
 20
108.76394602973809
 11
208.47144661705968
 21
108.76394602973809
  0
LINE
  8
2
 62
     7
  6
continuous
 10
208.47144661705968
 20
109.59727936307144
 11
208.47144661705968
 21
108.76394602973809
  0
LINE
  8
2
 62
     7
  6
continuous
 10
213.47144661705968
 20
108.76394602973809
 11
213.47144661705968
 21
107.93061269640476
  0
LINE
  8
2
 62
     7
  6
continuous
 10
208.47144661705968
 20
109.59727936307144
 11
213.47144661705968
 21
107.93061269640476
  0
LINE
  8
2
 62
     7
  6
continuous
 10
213.47144661705968
 20
108.76394602973809
 11
216.80477995039303
 21
108.76394602973809
  0
LINE
  8
2
 62
     7
  6
continuous
 10
205.13811328372634
 20
85.876303532921625
 11
208.47144661705968
 21
85.876303532921625
  0
LINE
  8
2
 62
     7
  6
continuous
 10
208.47144661705968
 20
86.709636866254954
 11
208.47144661705968
 21
85.876303532921625
  0
LINE
  8
2
 62
     7
  6
continuous
 10
213.47144661705968
 20
85.876303532921625
 11
213.47144661705968
 21
85.042970199588297
  0
LINE
  8
2
 62
     7
  6
continuous
 10
208.47144661705968
 20
86.709636866254954
 11
213.47144661705968
 21
85.042970199588297
  0
LINE
  8
2
 62
     7
  6
continuous
 10
213.47144661705968
 20
85.876303532921625
 11
216.80477995039303
 21
85.876303532921625
  0
LINE
  8
2
 62
     3
  6
continuous
 10
80.307164088900521
 20
59.593705120082468
 11
80.47383075556742
 21
59.593705120082433
  0
LINE
  8
2
 62
     3
  6
continuous
 10
80.307164088900791
 20
59.593705120082433
 11
80.307164088899583
 21
59.777038453412565
  0
LINE
  8
2
 62
     3
  6
continuous
 10
79.890497422229913
 20
60.09370512007709
 11
80.307164088900748
 21
60.093705120077693
  0
LINE
  8
2
 62
     3
  6
continuous
 10
80.015497422230339
 20
59.777038453412452
 11
80.307164088899583
 21
59.777038453412565
  0
LINE
  8
2
 62
     3
  6
continuous
 10
80.473830755567462
 20
62.927038453415804
 11
80.47383075556742
 21
59.593705120082433
  0
LINE
  8
2
 62
     3
  6
continuous
 10
80.307164088900748
 20
60.093705120077693
 11
80.307164088900223
 21
62.843705120082674
  0
LINE
  8
2
 62
     3
  6
continuous
 10
79.015497422234205
 20
63.1187051200829
 11
79.040497422235774
 21
63.093705120082731
  0
LINE
  8
2
 62
     3
  6
continuous
 10
79.015497422234205
 20
63.118705120082524
 11
78.990497422234
 21
63.093705120082731
  0
LINE
  8
2
 62
     3
  6
continuous
 10
79.040497422235774
 20
63.093705120082731
 11
80.057164088900223
 21
63.09370512008266
  0
LINE
  8
2
 62
     3
  6
continuous
 10
75.22383075556769
 20
59.593705120082468
 11
75.057164088900805
 21
59.593705120082433
  0
LINE
  8
2
 62
     3
  6
continuous
 10
75.223830755567434
 20
59.593705120082433
 11
75.223830755568656
 21
59.777038453412565
  0
LINE
  8
2
 62
     3
  6
continuous
 10
75.640497422238298
 20
60.09370512007709
 11
75.223830755567491
 21
60.093705120077693
  0
LINE
  8
2
 62
     3
  6
continuous
 10
75.515497422237871
 20
59.777038453412452
 11
75.223830755568656
 21
59.777038453412565
  0
LINE
  8
2
 62
     3
  6
continuous
 10
75.057164088900748
 20
62.927038453415804
 11
75.057164088900805
 21
59.593705120082433
  0
LINE
  8
2
 62
     3
  6
continuous
 10
75.223830755567491
 20
60.093705120077693
 11
75.223830755568002
 21
62.843705120082674
  0
LINE
  8
2
 62
     3
  6
continuous
 10
76.515497422234034
 20
63.1187051200829
 11
76.490497422232465
 21
63.093705120082731
  0
LINE
  8
2
 62
     3
  6
continuous
 10
76.515497422234006
 20
63.118705120082524
 11
76.54049742223421
 21
63.093705120082731
  0
LINE
  8
2
 62
     3
  6
continuous
 10
76.490497422232465
 20
63.093705120082731
 11
75.473830755568031
 21
63.09370512008266
  0
LINE
  8
2
 62
     3
  6
continuous
 10
75.47383075556742
 20
63.343705120082618
 11
80.057164088900791
 21
63.343705120082468
  0
LINE
  8
2
 62
     3
  6
continuous
 10
76.54049742223421
 20
63.093705120082731
 11
78.990497422234
 21
63.093705120082731
  0
LINE
  8
2
 62
     7
  6
continuous
 10
80.057164088900691
 20
63.093705120082468
 11
80.057164088900691
 21
60.260371786749097
  0
LINE
  8
2
 62
     7
  6
continuous
 10
75.473830755567406
 20
63.093705120082468
 11
75.473830755567406
 21
60.260371786749097
  0
LINE
  8
2
 62
     7
  6
continuous
 10
80.057164088900691
 20
60.260371786749097
 11
75.473830755567406
 21
60.260371786749097
  0
LINE
  8
2
 62
     7
  6
continuous
 10
80.057164088900691
 20
62.593705120082468
 11
75.473830755567406
 21
62.593705120082468
  0
LINE
  8
2
 62
     4
  6
continuous
 10
152.72144661706
 20
63.093705120083186
 11
152.72144661706
 21
63.060541872488734
  0
LINE
  8
2
 62
     4
  6
continuous
 10
152.05477995039331
 20
63.093705120083186
 11
152.05477995039331
 21
63.060541872488734
  0
LINE
  8
2
 62
     4
  6
line_font21
 10
152.22144661705988
 20
63.343705120082582
 11
152.22144661706
 21
63.093705120083186
  0
LINE
  8
2
 62
     4
  6
line_font21
 10
152.27977995039811
 20
63.343705120082582
 11
152.27977995039336
 21
63.093705120083186
  0
LINE
  8
2
 62
     4
  6
line_font21
 10
152.49644661706316
 20
63.343705120082582
 11
152.49644661706003
 21
63.093705120083186
  0
LINE
  8
2
 62
     4
  6
line_font21
 10
152.55477995038973
 20
63.343705120082582
 11
152.55477995039331
 21
63.093705120083186
  0
LINE
  8
2
 62
     4
  6
continuous
 10
152.22144661706
 20
64.033888629493077
 11
152.22144661706255
 21
63.343705120082547
  0
LINE
  8
2
 62
     4
  6
continuous
 10
152.27977995039336
 20
64.180082108131415
 11
152.27977995039384
 21
63.343705120082582
  0
LINE
  8
2
 62
     4
  6
continuous
 10
152.55477995039331
 20
64.033888629493077
 11
152.55477995039462
 21
63.343705120082547
  0
LINE
  8
2
 62
     4
  6
continuous
 10
152.49644661706003
 20
64.180082108131415
 11
152.4964466170625
 21
63.343705120082582
  0
LINE
  8
2
 62
     7
  6
continuous
 10
150.72144661705954
 20
94.031205120082234
 11
154.05477995039288
 21
94.031205120082234
  0
LINE
  8
2
 62
     7
  6
continuous
 10
150.72144661705954
 20
104.03120512008223
 11
154.05477995039288
 21
104.03120512008223
  0
LINE
  8
2
 62
     4
  6
continuous
 10
153.13811328372611
 20
63.343705120082547
 11
153.13811328372611
 21
94.031205120082006
  0
LINE
  8
2
 62
     4
  6
continuous
 10
151.63811328372597
 20
63.343705120082547
 11
151.63811328372594
 21
94.031205120082006
  0
LINE
  8
2
 62
     4
  6
continuous
 10
151.73811328372642
 20
63.343705120082547
 11
151.73811328372642
 21
94.031205120082006
  0
LINE
  8
2
 62
     4
  6
continuous
 10
153.03811328372609
 20
63.343705120082547
 11
153.03811328372612
 21
94.031205120082006
  0
LINE
  8
2
 62
     7
  6
line_font22
 10
151.32537586747634
 20
97.364538453414355
 11
153.46589250420965
 21
97.364538453414355
  0
LINE
  8
2
 62
     7
  6
line_font22
 10
152.38811328372623
 20
62.260371786749133
 11
152.38811328372623
 21
100.35334137464559
  0
LINE
  8
2
 62
     4
  6
continuous
 10
166.22144661705994
 20
63.093705120083186
 11
166.22144661705994
 21
63.060541872488734
  0
LINE
  8
2
 62
     4
  6
continuous
 10
165.55477995039325
 20
63.093705120083186
 11
165.55477995039325
 21
63.060541872488734
  0
LINE
  8
2
 62
     4
  6
line_font21
 10
165.72144661705985
 20
63.343705120082582
 11
165.72144661705994
 21
63.093705120083186
  0
LINE
  8
2
 62
     4
  6
line_font21
 10
165.77977995039805
 20
63.343705120082582
 11
165.77977995039333
 21
63.093705120083186
  0
LINE
  8
2
 62
     4
  6
line_font21
 10
165.9964466170631
 20
63.343705120082582
 11
165.99644661705997
 21
63.093705120083186
  0
LINE
  8
2
 62
     4
  6
line_font21
 10
166.05477995038967
 20
63.343705120082582
 11
166.05477995039325
 21
63.093705120083186
  0
LINE
  8
2
 62
     4
  6
continuous
 10
165.72144661705994
 20
64.033888629493077
 11
165.7214466170625
 21
63.343705120082547
  0
LINE
  8
2
 62
     4
  6
continuous
 10
165.77977995039333
 20
64.180082108131415
 11
165.77977995039379
 21
63.343705120082582
  0
LINE
  8
2
 62
     4
  6
continuous
 10
166.05477995039325
 20
64.033888629493077
 11
166.05477995039456
 21
63.343705120082547
  0
LINE
  8
2
 62
     4
  6
continuous
 10
165.99644661705997
 20
64.180082108131415
 11
165.99644661706245
 21
63.343705120082582
  0
LINE
  8
2
 62
     4
  6
continuous
 10
194.8881132837268
 20
63.09370512008315
 11
194.8881132837268
 21
63.060541872488734
  0
LINE
  8
2
 62
     4
  6
continuous
 10
194.22144661706014
 20
63.09370512008315
 11
194.22144661706014
 21
63.060541872488734
  0
LINE
  8
2
 62
     4
  6
line_font21
 10
194.38811328372674
 20
63.343705120082547
 11
194.38811328372688
 21
63.09370512008315
  0
LINE
  8
2
 62
     4
  6
line_font21
 10
194.44644661706496
 20
63.343705120082547
 11
194.44644661706019
 21
63.09370512008315
  0
LINE
  8
2
 62
     4
  6
line_font21
 10
194.66311328373001
 20
63.343705120082547
 11
194.66311328372683
 21
63.09370512008315
  0
LINE
  8
2
 62
     4
  6
line_font21
 10
194.72144661705659
 20
63.343705120082547
 11
194.72144661706014
 21
63.09370512008315
  0
LINE
  8
2
 62
     4
  6
continuous
 10
194.38811328372688
 20
64.033888629493049
 11
194.38811328372938
 21
63.343705120082547
  0
LINE
  8
2
 62
     4
  6
continuous
 10
194.44644661706019
 20
64.180082108131373
 11
194.44644661706064
 21
63.343705120082547
  0
LINE
  8
2
 62
     4
  6
continuous
 10
194.72144661706014
 20
64.033888629493049
 11
194.72144661706142
 21
63.343705120082547
  0
LINE
  8
2
 62
     4
  6
continuous
 10
194.66311328372683
 20
64.180082108131373
 11
194.66311328372933
 21
63.343705120082547
  0
LINE
  8
2
 62
     4
  6
continuous
 10
181.38811328372688
 20
63.093705120083186
 11
181.38811328372688
 21
63.060541872488734
  0
LINE
  8
2
 62
     4
  6
continuous
 10
180.72144661706022
 20
63.093705120083186
 11
180.72144661706022
 21
63.060541872488734
  0
LINE
  8
2
 62
     4
  6
line_font21
 10
180.88811328372677
 20
63.343705120082582
 11
180.88811328372691
 21
63.093705120083186
  0
LINE
  8
2
 62
     4
  6
line_font21
 10
180.94644661706496
 20
63.343705120082582
 11
180.94644661706025
 21
63.093705120083186
  0
LINE
  8
2
 62
     4
  6
line_font21
 10
181.16311328373007
 20
63.343705120082582
 11
181.16311328372689
 21
63.093705120083186
  0
LINE
  8
2
 62
     4
  6
line_font21
 10
181.22144661705664
 20
63.343705120082582
 11
181.22144661706022
 21
63.093705120083186
  0
LINE
  8
2
 62
     4
  6
continuous
 10
180.88811328372691
 20
64.033888629493077
 11
180.88811328372938
 21
63.343705120082547
  0
LINE
  8
2
 62
     4
  6
continuous
 10
180.94644661706025
 20
64.180082108131415
 11
180.9464466170607
 21
63.343705120082582
  0
LINE
  8
2
 62
     4
  6
continuous
 10
181.22144661706022
 20
64.033888629493077
 11
181.2214466170615
 21
63.343705120082547
  0
LINE
  8
2
 62
     4
  6
continuous
 10
181.16311328372689
 20
64.180082108131415
 11
181.16311328372939
 21
63.343705120082582
  0
LINE
  8
2
 62
     4
  6
continuous
 10
119.8881132837268
 20
63.093705120083186
 11
119.8881132837268
 21
63.060541872488734
  0
LINE
  8
2
 62
     4
  6
continuous
 10
119.22144661706012
 20
63.093705120083186
 11
119.22144661706012
 21
63.060541872488734
  0
LINE
  8
2
 62
     4
  6
line_font21
 10
119.38811328372671
 20
63.343705120082582
 11
119.38811328372682
 21
63.093705120083186
  0
LINE
  8
2
 62
     4
  6
line_font21
 10
119.44644661706492
 20
63.343705120082582
 11
119.44644661706019
 21
63.093705120083186
  0
LINE
  8
2
 62
     4
  6
line_font21
 10
119.66311328372998
 20
63.343705120082582
 11
119.6631132837268
 21
63.093705120083186
  0
LINE
  8
2
 62
     4
  6
line_font21
 10
119.72144661705656
 20
63.343705120082582
 11
119.72144661706012
 21
63.093705120083186
  0
LINE
  8
2
 62
     4
  6
continuous
 10
119.38811328372682
 20
64.033888629493077
 11
119.38811328372933
 21
63.343705120082547
  0
LINE
  8
2
 62
     4
  6
continuous
 10
119.44644661706019
 20
64.180082108131415
 11
119.44644661706064
 21
63.343705120082582
  0
LINE
  8
2
 62
     4
  6
continuous
 10
119.72144661706012
 20
64.033888629493077
 11
119.72144661706142
 21
63.343705120082547
  0
LINE
  8
2
 62
     4
  6
continuous
 10
119.6631132837268
 20
64.180082108131415
 11
119.6631132837293
 21
63.343705120082582
  0
LINE
  8
2
 62
     4
  6
continuous
 10
227.72144661706022
 20
63.093705120083207
 11
227.72144661706022
 21
63.06054187248877
  0
LINE
  8
2
 62
     4
  6
continuous
 10
227.05477995039354
 20
63.093705120083207
 11
227.05477995039354
 21
63.06054187248877
  0
LINE
  8
2
 62
     4
  6
line_font21
 10
227.22144661706014
 20
63.343705120082603
 11
227.22144661706022
 21
63.093705120083207
  0
LINE
  8
2
 62
     4
  6
line_font21
 10
227.27977995039831
 20
63.343705120082603
 11
227.27977995039362
 21
63.093705120083207
  0
LINE
  8
2
 62
     4
  6
line_font21
 10
227.49644661706341
 20
63.343705120082603
 11
227.49644661706023
 21
63.093705120083207
  0
LINE
  8
2
 62
     4
  6
line_font21
 10
227.55477995038999
 20
63.343705120082603
 11
227.55477995039354
 21
63.093705120083207
  0
LINE
  8
2
 62
     4
  6
continuous
 10
227.22144661706022
 20
64.033888629493077
 11
227.22144661706272
 21
63.343705120082582
  0
LINE
  8
2
 62
     4
  6
continuous
 10
227.27977995039362
 20
64.18008210813143
 11
227.27977995039407
 21
63.343705120082603
  0
LINE
  8
2
 62
     4
  6
continuous
 10
227.55477995039354
 20
64.033888629493077
 11
227.55477995039485
 21
63.343705120082582
  0
LINE
  8
2
 62
     4
  6
continuous
 10
227.49644661706023
 20
64.18008210813143
 11
227.49644661706273
 21
63.343705120082603
  0
LINE
  8
2
 62
     7
  6
continuous
 10
71.932164088900564
 20
44.182437892786027
 11
75.265497422233892
 21
44.182437892786027
  0
LINE
  8
2
 62
     7
  6
continuous
 10
75.265497422233892
 20
45.015771226119355
 11
75.265497422233892
 21
44.182437892786027
  0
LINE
  8
2
 62
     7
  6
continuous
 10
80.265497422233892
 20
44.182437892786027
 11
80.265497422233892
 21
43.349104559452691
  0
LINE
  8
2
 62
     7
  6
continuous
 10
75.265497422233892
 20
45.015771226119355
 11
80.265497422233892
 21
43.349104559452691
  0
LINE
  8
2
 62
     7
  6
continuous
 10
80.265497422233892
 20
44.182437892786027
 11
83.598830755567235
 21
44.182437892786027
  0
LINE
  8
2
 62
     7
  6
continuous
 10
71.932164088900549
 20
42.300920152084416
 11
75.265497422233878
 21
42.300920152084416
  0
LINE
  8
2
 62
     7
  6
continuous
 10
75.265497422233878
 20
43.134253485417744
 11
75.265497422233878
 21
42.300920152084416
  0
LINE
  8
2
 62
     7
  6
continuous
 10
80.265497422233878
 20
42.300920152084416
 11
80.265497422233878
 21
41.46758681875108
  0
LINE
  8
2
 62
     7
  6
continuous
 10
75.265497422233878
 20
43.134253485417744
 11
80.265497422233878
 21
41.46758681875108
  0
LINE
  8
2
 62
     7
  6
continuous
 10
80.265497422233878
 20
42.300920152084416
 11
83.598830755567207
 21
42.300920152084416
  0
LINE
  8
2
 62
     7
  6
continuous
 10
84.432164088901189
 20
34.843705120082497
 11
84.432164088901189
 21
34.593705120082497
  0
LINE
  8
2
 62
     7
  6
continuous
 10
82.182164088901175
 20
39.593705120082497
 11
81.932164088901189
 21
39.593705120082497
  0
LINE
  8
2
 62
     7
  6
continuous
 10
82.932164088901175
 20
35.093705120082497
 11
84.182164088901203
 21
35.093705120082497
  0
LINE
  8
2
 62
     7
  6
continuous
 10
82.432164088901189
 20
35.593705120082497
 11
82.432164088901189
 21
39.343705120082497
  0
LINE
  8
2
 62
     7
  6
continuous
 10
84.432164088901189
 20
34.593705120082497
 11
81.932164088901189
 21
34.593705120082497
  0
LINE
  8
2
 62
     4
  6
continuous
 10
82.69883075556784
 20
38.760371786749161
 11
82.69883075556784
 21
36.260371786749161
  0
LINE
  8
2
 62
     4
  6
continuous
 10
82.69883075556784
 20
38.760371786749161
 11
82.432164088901189
 21
38.760371786749161
  0
LINE
  8
2
 62
     4
  6
continuous
 10
82.69883075556784
 20
36.260371786749161
 11
82.432164088901189
 21
36.260371786749161
  0
LINE
  8
2
 62
     4
  6
continuous
 10
84.498830755567838
 20
38.010371786749161
 11
84.498830755567838
 21
37.010371786749161
  0
LINE
  8
2
 62
     4
  6
continuous
 10
84.332164088901166
 20
38.177038453415832
 11
84.332164088901166
 21
36.843705120082497
  0
LINE
  8
2
 62
     4
  6
continuous
 10
84.332164088901166
 20
38.177038453415832
 11
84.498830755567838
 21
38.010371786749161
  0
LINE
  8
2
 62
     4
  6
continuous
 10
84.498830755567838
 20
37.010371786749161
 11
84.332164088901166
 21
36.843705120082497
  0
LINE
  8
2
 62
     7
  6
continuous
 10
71.09883075556759
 20
34.593705120082497
 11
73.59883075556759
 21
34.593705120082497
  0
LINE
  8
2
 62
     4
  6
continuous
 10
71.99883075556761
 20
38.376397190533581
 11
71.99883075556761
 21
36.644346382964706
  0
LINE
  8
2
 62
     4
  6
continuous
 10
72.832164088900939
 20
38.760371786749161
 11
72.832164088900939
 21
36.260371786749161
  0
LINE
  8
2
 62
     4
  6
continuous
 10
72.165497422234267
 20
38.665072325128392
 11
72.832164088900939
 21
38.665072325128392
  0
LINE
  8
2
 62
     4
  6
continuous
 10
72.165497422234267
 20
38.087722055938777
 11
72.832164088900939
 21
38.087722055938777
  0
LINE
  8
2
 62
     4
  6
continuous
 10
72.165497422234267
 20
36.93302151755951
 11
72.832164088900939
 21
36.93302151755951
  0
LINE
  8
2
 62
     4
  6
continuous
 10
72.165497422234267
 20
36.355671248369902
 11
72.832164088900939
 21
36.355671248369902
  0
LINE
  8
2
 62
     4
  6
continuous
 10
72.832164088900939
 20
38.760371786749161
 11
73.09883075556759
 21
38.760371786749161
  0
LINE
  8
2
 62
     4
  6
continuous
 10
72.832164088900939
 20
36.260371786749161
 11
73.09883075556759
 21
36.260371786749161
  0
LINE
  8
2
 62
     7
  6
line_font22
 10
71.582164088900939
 20
37.510371786749161
 11
84.915497422234495
 21
37.510371786749161
  0
LINE
  8
2
 62
     7
  6
line_font22
 10
88.182164088900734
 20
34.885371786749161
 11
88.182164088900734
 21
37.635371786749161
  0
LINE
  8
2
 62
     7
  6
line_font22
 10
86.807164088900748
 20
36.260371786749161
 11
89.557164088900734
 21
36.260371786749161
  0
LINE
  8
2
 62
     4
  6
continuous
 10
83.782164088901254
 20
38.376397190533581
 11
83.782164088901254
 21
36.644346382964706
  0
LINE
  8
2
 62
     4
  6
continuous
 10
83.615497422234583
 20
38.665072325128392
 11
82.698830755567911
 21
38.665072325128392
  0
LINE
  8
2
 62
     4
  6
continuous
 10
83.615497422234583
 20
38.087722055938777
 11
82.698830755567911
 21
38.087722055938777
  0
LINE
  8
2
 62
     4
  6
continuous
 10
83.615497422234583
 20
36.93302151755951
 11
82.698830755567911
 21
36.93302151755951
  0
LINE
  8
2
 62
     4
  6
continuous
 10
83.615497422234583
 20
36.355671248369902
 11
82.698830755567911
 21
36.355671248369902
  0
LINE
  8
2
 62
     4
  6
continuous
 10
84.332164088901166
 20
36.843705120082497
 11
83.782164088901226
 21
36.843705120082646
  0
LINE
  8
2
 62
     4
  6
continuous
 10
84.332164088901166
 20
38.177038453415832
 11
83.782164088901226
 21
38.177038453415108
  0
LINE
  8
2
 62
     4
  6
continuous
 10
84.498830755567838
 20
37.010371786749161
 11
83.782164088901226
 21
37.010371786749047
  0
LINE
  8
2
 62
     4
  6
continuous
 10
84.498830755567838
 20
38.010371786749161
 11
83.782164088901226
 21
38.010371786749317
  0
LINE
  8
2
 62
     7
  6
continuous
 10
72.598830755567576
 20
35.093705120082497
 11
71.34883075556759
 21
35.093705120082575
  0
LINE
  8
2
 62
     7
  6
continuous
 10
71.098830755568102
 20
34.843705120082952
 11
71.09883075556759
 21
34.593705120082497
  0
LINE
  8
2
 62
     7
  6
continuous
 10
73.09883075556759
 20
35.593705120082497
 11
73.098830755567661
 21
39.343705120082497
  0
LINE
  8
2
 62
     7
  6
continuous
 10
73.348830755567519
 20
39.593705120082646
 11
73.59883075556759
 21
39.593705120082497
  0
LINE
  8
2
 62
     6
  6
continuous
 10
73.598830755567192
 20
34.593705120082419
 11
73.598830755567207
 21
42.300920152084416
  0
LINE
  8
2
 62
     6
  6
continuous
 10
73.598830755567192
 20
34.593705120082419
 11
81.932164088901118
 21
34.593705120082554
  0
LINE
  8
2
 62
     6
  6
continuous
 10
81.932164088901118
 20
34.593705120082554
 11
81.932164088901075
 21
42.300920152084416
  0
LINE
  8
2
 62
     7
  6
line_font28
 10
103.14891123769594
 20
41.128997102189388
 11
94.432164088900834
 21
41.128997102189352
  0
LINE
  8
2
 62
     7
  6
line_font28
 10
94.432164088900834
 20
41.128997102189352
 11
94.432164088900805
 21
42.300920152084487
  0
LINE
  8
2
 62
     7
  6
line_font28
 10
94.432164088900791
 20
44.182437892786119
 11
94.432164088900791
 21
45.843705120082497
  0
LINE
  8
2
 62
     7
  6
line_font22
 10
118.70783047728156
 20
36.260371786749182
 11
129.06839609017106
 21
36.260371786749182
  0
LINE
  8
2
 62
     2
  6
line_font28
 10
120.03580929363387
 20
36.802038453415847
 11
128.0113771726152
 21
36.802038453415847
  0
LINE
  8
2
 62
     2
  6
line_font28
 10
119.72144661705963
 20
35.718705120082497
 11
127.74041727381874
 21
35.718705120082497
  0
LINE
  8
2
 62
     7
  6
line_font22
 10
142.45783047728156
 20
36.260371786749182
 11
152.81839609017103
 21
36.260371786749182
  0
LINE
  8
2
 62
     2
  6
line_font28
 10
143.78580929363386
 20
36.802038453415847
 11
151.76137717261523
 21
36.802038453415847
  0
LINE
  8
2
 62
     2
  6
line_font28
 10
143.47144661705966
 20
35.718705120082497
 11
151.49041727381871
 21
35.718705120082497
  0
LINE
  8
2
 62
     7
  6
continuous
 10
131.80477995039271
 20
39.593705120082497
 11
140.13811328372665
 21
39.593705120082554
  0
LINE
  8
2
 62
     7
  6
continuous
 10
131.80477995039271
 20
35.093705120082475
 11
140.13811328372668
 21
35.093705120082532
  0
LINE
  8
2
 62
     7
  6
continuous
 10
131.80477995039269
 20
34.593705120082518
 11
140.13811328372668
 21
34.593705120082461
  0
LINE
  8
2
 62
     7
  6
line_font22
 10
133.88811328372631
 20
35.843706370082501
 11
133.88811328372631
 21
39.177039703415836
  0
LINE
  8
2
 62
     4
  6
continuous
 10
133.88811328372631
 20
36.355672498369927
 11
134.88811328372626
 21
36.933022767559535
  0
LINE
  8
2
 62
     4
  6
continuous
 10
134.88811328372626
 20
36.933022767559535
 11
134.88811328372626
 21
38.087723305938802
  0
LINE
  8
2
 62
     4
  6
continuous
 10
134.88811328372626
 20
38.087723305938802
 11
133.88811328372631
 21
38.665073575128417
  0
LINE
  8
2
 62
     4
  6
continuous
 10
133.88811328372631
 20
38.665073575128417
 11
132.88811328372628
 21
38.087723305938802
  0
LINE
  8
2
 62
     4
  6
continuous
 10
132.88811328372628
 20
38.087723305938802
 11
132.88811328372628
 21
36.933022767559535
  0
LINE
  8
2
 62
     4
  6
continuous
 10
132.88811328372628
 20
36.933022767559535
 11
133.88811328372631
 21
36.355672498369927
  0
LINE
  8
2
 62
     7
  6
line_font22
 10
138.05477995039297
 20
35.843706370082501
 11
138.05477995039297
 21
39.177039703415836
  0
LINE
  8
2
 62
     4
  6
continuous
 10
138.05477995039297
 20
36.355672498369927
 11
137.054779950393
 21
36.933022767559535
  0
LINE
  8
2
 62
     4
  6
continuous
 10
137.054779950393
 20
36.933022767559535
 11
137.054779950393
 21
38.087723305938802
  0
LINE
  8
2
 62
     4
  6
continuous
 10
137.054779950393
 20
38.087723305938802
 11
138.05477995039297
 21
38.665073575128417
  0
LINE
  8
2
 62
     4
  6
continuous
 10
138.05477995039297
 20
38.665073575128417
 11
139.05477995039297
 21
38.087723305938802
  0
LINE
  8
2
 62
     4
  6
continuous
 10
139.05477995039297
 20
38.087723305938802
 11
139.05477995039297
 21
36.933022767559535
  0
LINE
  8
2
 62
     4
  6
continuous
 10
139.05477995039297
 20
36.933022767559535
 11
138.05477995039297
 21
36.355672498369927
  0
LINE
  8
2
 62
     7
  6
line_font22
 10
136.38811328372631
 20
37.510373036749172
 11
139.72144661705966
 21
37.510373036749172
  0
LINE
  8
2
 62
     7
  6
line_font22
 10
132.2214466170596
 20
37.510373036749172
 11
136.38811328372631
 21
37.510373036749172
  0
LINE
  8
2
 62
     7
  6
line_font28
 10
61.09883075556742
 20
44.182437892786027
 11
61.098830755567406
 21
45.843705120082461
  0
LINE
  8
2
 62
     7
  6
continuous
 10
130.13811328372606
 20
44.182437892786027
 11
133.4714466170594
 21
44.182437892786027
  0
LINE
  8
2
 62
     7
  6
continuous
 10
133.4714466170594
 20
45.015771226119355
 11
133.4714466170594
 21
44.182437892786027
  0
LINE
  8
2
 62
     7
  6
continuous
 10
138.4714466170594
 20
44.182437892786027
 11
138.4714466170594
 21
43.349104559452691
  0
LINE
  8
2
 62
     7
  6
continuous
 10
133.4714466170594
 20
45.015771226119355
 11
138.4714466170594
 21
43.349104559452691
  0
LINE
  8
2
 62
     7
  6
continuous
 10
138.4714466170594
 20
44.182437892786027
 11
141.80477995039274
 21
44.182437892786027
  0
LINE
  8
2
 62
     7
  6
continuous
 10
130.13811328372606
 20
42.300920152084416
 11
133.47144661705937
 21
42.300920152084416
  0
LINE
  8
2
 62
     7
  6
continuous
 10
133.47144661705937
 20
43.134253485417744
 11
133.47144661705937
 21
42.300920152084416
  0
LINE
  8
2
 62
     7
  6
continuous
 10
138.47144661705937
 20
42.300920152084416
 11
138.47144661705937
 21
41.46758681875108
  0
LINE
  8
2
 62
     7
  6
continuous
 10
133.47144661705937
 20
43.134253485417744
 11
138.47144661705937
 21
41.46758681875108
  0
LINE
  8
2
 62
     7
  6
continuous
 10
138.47144661705937
 20
42.300920152084416
 11
141.80477995039271
 21
42.300920152084416
  0
LINE
  8
2
 62
     6
  6
continuous
 10
132.0964466170594
 20
44.182437892786027
 11
132.09644661705946
 21
60.80203845341569
  0
LINE
  8
2
 62
     6
  6
continuous
 10
139.84644661705994
 20
44.182437892786027
 11
139.84644661705991
 21
60.80203845341569
  0
LINE
  8
2
 62
     6
  6
continuous
 10
131.80477995039271
 20
34.593705120082461
 11
131.80477995039274
 21
42.300920152084416
  0
LINE
  8
2
 62
     6
  6
continuous
 10
140.13811328372671
 20
34.593705120082461
 11
140.13811328372665
 21
42.300920152084416
  0
LINE
  8
2
 62
     3
  6
continuous
 10
74.098830755567505
 20
127.09370512008253
 11
73.098830755567462
 21
127.09370512008253
  0
LINE
  8
2
 62
     3
  6
continuous
 10
72.932164088900834
 20
124.67703845341583
 11
72.932164088900777
 21
126.92703845341586
  0
LINE
  8
2
 62
     3
  6
continuous
 10
82.765497422234176
 20
124.67703845341583
 11
82.765497422234205
 21
129.00269334558126
  0
LINE
  8
2
 62
     3
  6
continuous
 10
82.598830755567562
 20
124.67703845341583
 11
82.598830755567562
 21
126.92703845341586
  0
LINE
  8
2
 62
     3
  6
continuous
 10
74.098830755567505
 20
127.46870512008253
 11
73.765497422234176
 21
127.46870512008253
  0
LINE
  8
2
 62
     3
  6
continuous
 10
73.765497422234176
 20
127.34370512008249
 11
73.765497422234176
 21
127.46870512008253
  0
LINE
  8
2
 62
     3
  6
continuous
 10
82.598830755567562
 20
129.00269334558138
 11
82.598830755567846
 21
127.5103717867492
  0
LINE
  8
2
 62
     3
  6
continuous
 10
74.182164088900834
 20
127.17703845341583
 11
74.182164088900834
 21
127.38537178674916
  0
LINE
  8
2
 62
     3
  6
continuous
 10
73.098830755567462
 20
127.34370512008246
 11
73.765497422234176
 21
127.34370512008249
  0
LINE
  8
2
 62
     3
  6
continuous
 10
81.765497422234546
 20
127.34370512008246
 11
81.765497422234091
 21
127.46870512008253
  0
LINE
  8
2
 62
     3
  6
continuous
 10
82.432164088900933
 20
127.34370512008249
 11
81.765497422234546
 21
127.34370512008246
  0
LINE
  8
2
 62
     3
  6
continuous
 10
81.432164088900819
 20
127.46870512008246
 11
81.765497422234091
 21
127.46870512008253
  0
LINE
  8
2
 62
     3
  6
continuous
 10
81.34883075556732
 20
127.17703845341579
 11
81.348830755567278
 21
127.38537178674916
  0
LINE
  8
2
 62
     3
  6
continuous
 10
81.432164088900819
 20
127.09370512008249
 11
82.432164088900933
 21
127.09370512008253
  0
LINE
  8
2
 62
     3
  6
continuous
 10
72.932164088900777
 20
129.00269334558126
 11
72.932164088900862
 21
127.5103717867492
  0
LINE
  8
2
 62
     3
  6
continuous
 10
72.765497422234176
 20
124.67703845341583
 11
72.765497422234176
 21
129.00269334558129
  0
LINE
  8
2
 62
     7
  6
continuous
 10
81.384051566468187
 20
128.09370512008275
 11
80.313609944666524
 21
128.09370512008275
  0
LINE
  8
2
 62
     7
  6
continuous
 10
82.057164088900763
 20
127.80203845341613
 11
81.6967829622794
 21
127.80203845341613
  0
LINE
  8
2
 62
     7
  6
continuous
 10
81.456220350116922
 20
128.05203845341612
 11
81.55244539498193
 21
127.88537178674943
  0
LINE
  8
2
 62
     7
  6
continuous
 10
82.223830755567406
 20
127.96870512008283
 11
82.223830755567391
 21
129.00269334558152
  0
LINE
  8
2
 62
     7
  6
continuous
 10
73.140497422234063
 20
127.38537178674939
 11
73.140497422234063
 21
129.00269334558152
  0
LINE
  8
2
 62
     7
  6
continuous
 10
82.390497422234034
 20
127.3853717867495
 11
82.390497422234034
 21
129.00269334558152
  0
LINE
  8
2
 62
     7
  6
continuous
 10
80.241441161017846
 20
128.05203845341609
 11
80.015497422234063
 21
127.66069241819042
  0
LINE
  8
2
 62
     7
  6
continuous
 10
75.140497422234063
 20
127.51037178674943
 11
74.723830755567775
 21
127.51037178674943
  0
LINE
  8
2
 62
     7
  6
continuous
 10
74.682164088900706
 20
127.55203845341617
 11
74.723830755567775
 21
127.51037178674943
  0
LINE
  8
2
 62
     7
  6
continuous
 10
74.682164088900706
 20
127.55203845341609
 11
74.640497422233835
 21
127.51037178674943
  0
LINE
  8
2
 62
     7
  6
continuous
 10
80.390497422234063
 20
127.51037178674943
 11
80.807164088900436
 21
127.5103717867495
  0
LINE
  8
2
 62
     7
  6
continuous
 10
80.848830755567391
 20
127.55203845341617
 11
80.807164088900436
 21
127.5103717867495
  0
LINE
  8
2
 62
     7
  6
continuous
 10
80.848830755567391
 20
127.55203845341609
 11
80.89049742223402
 21
127.51037178674943
  0
LINE
  8
2
 62
     7
  6
continuous
 10
75.47383075556732
 20
127.09370512008265
 11
75.26549742223402
 21
127.09370512008276
  0
LINE
  8
2
 62
     7
  6
continuous
 10
75.223830755567391
 20
127.42703845341613
 11
75.223830755567406
 21
127.13537178674939
  0
LINE
  8
2
 62
     7
  6
continuous
 10
80.307164088900748
 20
127.42703845341613
 11
80.307164088900805
 21
127.13537178674946
  0
LINE
  8
2
 62
     7
  6
continuous
 10
80.057164088900834
 20
127.09370512008272
 11
80.265497422234077
 21
127.09370512008265
  0
LINE
  8
2
 62
     7
  6
continuous
 10
80.015497422234148
 20
127.13537178674935
 11
80.015497422234063
 21
127.66069241819042
  0
LINE
  8
2
 62
     7
  6
continuous
 10
73.473830755567434
 20
127.51037178674946
 11
74.640497422233835
 21
127.51037178674943
  0
LINE
  8
2
 62
     7
  6
continuous
 10
82.140497422234063
 20
127.38537178674939
 11
82.140497422234063
 21
127.42703845341613
  0
LINE
  8
2
 62
     7
  6
continuous
 10
82.182164088900834
 20
127.34370512008257
 11
82.348830755567349
 21
127.34370512008287
  0
LINE
  8
2
 62
     7
  6
continuous
 10
82.05716408890072
 20
127.51037178674946
 11
80.89049742223402
 21
127.51037178674943
  0
LINE
  8
2
 62
     7
  6
continuous
 10
73.348830755567576
 20
127.34370512008283
 11
73.18216408890072
 21
127.34370512008287
  0
LINE
  8
2
 62
     7
  6
continuous
 10
73.390497422234262
 20
127.38537178674935
 11
73.390497422233864
 21
127.42703845341575
  0
LINE
  8
2
 62
     7
  6
continuous
 10
74.14694327799991
 20
128.09370512008275
 11
75.217384899801601
 21
128.09370512008275
  0
LINE
  8
2
 62
     7
  6
continuous
 10
75.515497422233977
 20
127.13537178674932
 11
75.515497422234091
 21
127.66069241819042
  0
LINE
  8
2
 62
     7
  6
continuous
 10
75.289553683450251
 20
128.05203845341606
 11
75.515497422234091
 21
127.66069241819042
  0
LINE
  8
2
 62
     7
  6
continuous
 10
74.074774494351317
 20
128.05203845341606
 11
73.978549449486181
 21
127.88537178674939
  0
LINE
  8
2
 62
     7
  6
continuous
 10
73.473830755567377
 20
127.80203845341613
 11
73.83421188218874
 21
127.80203845341613
  0
LINE
  8
2
 62
     7
  6
continuous
 10
73.30716408890072
 20
127.96870512008283
 11
73.30716408890072
 21
129.00269334558152
  0
LINE
  8
2
 62
     7
  6
continuous
 10
73.598830755567576
 20
127.09370512008203
 11
81.932164088900748
 21
127.09370512008203
  0
LINE
  8
2
 62
     7
  6
continuous
 10
73.598830755567562
 20
126.67703845341529
 11
73.598830755567576
 21
127.09370512008203
  0
LINE
  8
2
 62
     7
  6
continuous
 10
81.932164088900748
 20
126.67703845341529
 11
81.932164088900748
 21
127.09370512008203
  0
LINE
  8
2
 62
     7
  6
line_font21
 10
81.307164088900748
 20
120.56851994041943
 11
81.307164088900805
 21
126.67703845341529
  0
LINE
  8
2
 62
     7
  6
line_font21
 10
74.223830755567505
 20
120.56851994041935
 11
81.307164088900748
 21
120.56851994041943
  0
LINE
  8
2
 62
     7
  6
line_font21
 10
74.223830755567505
 20
120.56851994041935
 11
74.223830755567462
 21
126.67703845341529
  0
LINE
  8
2
 62
     2
  6
line_font21
 10
81.307164088900876
 20
124.38537178674841
 11
74.223830755567448
 21
124.38537178674852
  0
LINE
  8
2
 62
     2
  6
line_font21
 10
81.307164088900876
 20
123.13537178674852
 11
74.223830755567462
 21
123.13537178674825
  0
LINE
  8
2
 62
     4
  6
continuous
 10
80.619664088912458
 20
127.51037178674946
 11
80.619664088911122
 21
127.09370512008201
  0
LINE
  8
2
 62
     4
  6
continuous
 10
80.51549742224573
 20
127.51037178674943
 11
80.515497422247492
 21
127.09370512008201
  0
LINE
  8
2
 62
     4
  6
continuous
 10
81.077997422246753
 20
127.51037178674954
 11
81.077997422246881
 21
127.09370512008201
  0
LINE
  8
2
 62
     4
  6
continuous
 10
81.182164088913439
 20
127.51037178674957
 11
81.182164088913552
 21
127.09370512008201
  0
LINE
  8
2
 62
     4
  6
line_font21
 10
80.515497422245886
 20
128.09370512008246
 11
80.515497422245161
 21
127.51037178674939
  0
LINE
  8
2
 62
     4
  6
line_font21
 10
80.619664088912543
 20
128.09370512008246
 11
80.619664088912927
 21
127.51037178674943
  0
LINE
  8
2
 62
     4
  6
line_font21
 10
81.077997422246824
 20
128.09370512008246
 11
81.077997422247137
 21
127.51037178674954
  0
LINE
  8
2
 62
     4
  6
line_font21
 10
81.182164088912074
 20
128.09370512008246
 11
81.182164088911179
 21
127.51037178674954
  0
LINE
  8
2
 62
     4
  6
continuous
 10
74.452997422236024
 20
127.51037178675776
 11
74.452997422234716
 21
127.09370512009031
  0
LINE
  8
2
 62
     4
  6
continuous
 10
74.348830755569281
 20
127.51037178675773
 11
74.348830755571086
 21
127.09370512009031
  0
LINE
  8
2
 62
     4
  6
continuous
 10
74.91133075557029
 20
127.51037178675784
 11
74.911330755570475
 21
127.09370512009031
  0
LINE
  8
2
 62
     4
  6
continuous
 10
75.015497422237019
 20
127.51037178675787
 11
75.015497422237146
 21
127.09370512009031
  0
LINE
  8
2
 62
     4
  6
line_font21
 10
74.34883075556948
 20
128.09370512009076
 11
74.348830755568713
 21
127.51037178675773
  0
LINE
  8
2
 62
     4
  6
line_font21
 10
74.452997422236137
 20
128.09370512009076
 11
74.452997422236521
 21
127.51037178675773
  0
LINE
  8
2
 62
     4
  6
line_font21
 10
74.911330755570418
 20
128.09370512009076
 11
74.911330755570674
 21
127.51037178675784
  0
LINE
  8
2
 62
     4
  6
line_font21
 10
75.015497422235626
 20
128.09370512009076
 11
75.015497422234773
 21
127.51037178675784
  0
LINE
  8
2
 62
     7
  6
continuous
 10
73.598830755567576
 20
126.67703845341529
 11
81.932164088900748
 21
126.67703845341529
  0
LINE
  8
2
 62
     4
  6
continuous
 10
80.207163071660204
 20
126.37703845341511
 11
81.490497422246136
 21
126.37703845341511
  0
LINE
  8
2
 62
     4
  6
continuous
 10
80.577997422246114
 20
125.91870512008178
 11
81.119664088912813
 21
125.91870512008178
  0
LINE
  8
2
 62
     4
  6
continuous
 10
80.140497422246128
 20
126.54370512008178
 11
81.557164088912771
 21
126.54370512008178
  0
LINE
  8
2
 62
     4
  6
continuous
 10
80.207164088912791
 20
126.37703845341511
 11
80.207164088912791
 21
126.54370512008178
  0
LINE
  8
2
 62
     4
  6
continuous
 10
81.490497422246136
 20
126.37703845341511
 11
81.490497422246136
 21
126.54370512008178
  0
LINE
  8
2
 62
     4
  6
continuous
 10
80.786330755579442
 20
126.37703845341511
 11
80.850433319682026
 21
126.54370512008178
  0
LINE
  8
2
 62
     4
  6
continuous
 10
80.869664088912799
 20
126.37703845341511
 11
80.933766653015354
 21
126.54370512008178
  0
LINE
  8
2
 62
     4
  6
continuous
 10
80.140497422246128
 20
126.54370512008178
 11
80.140497422246128
 21
126.67703845341511
  0
LINE
  8
2
 62
     4
  6
continuous
 10
81.557164088912771
 20
126.54370512008178
 11
81.557164088912771
 21
126.67703845341511
  0
LINE
  8
2
 62
     4
  6
continuous
 10
80.848830755579485
 20
126.0750708179873
 11
80.848830755579485
 21
126.37703845341511
  0
LINE
  8
2
 62
     4
  6
continuous
 10
80.307164088912771
 20
126.0750708179873
 11
80.307164088912771
 21
126.37703845341511
  0
LINE
  8
2
 62
     4
  6
continuous
 10
81.390497422246128
 20
126.0750708179873
 11
81.390497422246128
 21
126.37703845341511
  0
LINE
  8
2
 62
     7
  6
line_font22
 10
80.848830755579485
 20
125.50203845341511
 11
80.848830755579485
 21
128.87703845341511
  0
LINE
  8
2
 62
     4
  6
continuous
 10
80.619664088912771
 20
128.46037178674845
 11
81.077997422246128
 21
128.46037178674845
  0
LINE
  8
2
 62
     4
  6
continuous
 10
80.515497422246114
 20
128.35620512008177
 11
81.182164088912799
 21
128.35620512008177
  0
LINE
  8
2
 62
     4
  6
continuous
 10
81.182164088912799
 20
128.35620512008177
 11
81.077997422246128
 21
128.46037178674845
  0
LINE
  8
2
 62
     4
  6
continuous
 10
80.515497422246114
 20
128.35620512008177
 11
80.619664088912771
 21
128.46037178674845
  0
LINE
  8
2
 62
     4
  6
continuous
 10
74.040496404983742
 20
126.37703845342341
 11
75.32383075556973
 21
126.37703845342341
  0
LINE
  8
2
 62
     4
  6
continuous
 10
74.411330755569708
 20
125.91870512009008
 11
74.952997422236351
 21
125.91870512009008
  0
LINE
  8
2
 62
     4
  6
continuous
 10
73.973830755569708
 20
126.54370512009008
 11
75.390497422236365
 21
126.54370512009008
  0
LINE
  8
2
 62
     4
  6
continuous
 10
74.040497422236385
 20
126.37703845342341
 11
74.040497422236385
 21
126.54370512009008
  0
LINE
  8
2
 62
     4
  6
continuous
 10
75.32383075556973
 20
126.37703845342341
 11
75.32383075556973
 21
126.54370512009008
  0
LINE
  8
2
 62
     4
  6
continuous
 10
74.619664088903036
 20
126.37703845342341
 11
74.68376665300562
 21
126.54370512009008
  0
LINE
  8
2
 62
     4
  6
continuous
 10
74.702997422236365
 20
126.37703845342341
 11
74.767099986338934
 21
126.54370512009008
  0
LINE
  8
2
 62
     4
  6
continuous
 10
73.973830755569708
 20
126.54370512009008
 11
73.973830755569708
 21
126.67703845342345
  0
LINE
  8
2
 62
     4
  6
continuous
 10
75.390497422236365
 20
126.54370512009008
 11
75.390497422236365
 21
126.67703845342345
  0
LINE
  8
2
 62
     4
  6
continuous
 10
74.682164088903036
 20
126.07507081799562
 11
74.682164088903036
 21
126.37703845342341
  0
LINE
  8
2
 62
     4
  6
continuous
 10
74.140497422236365
 20
126.07507081799562
 11
74.140497422236365
 21
126.37703845342341
  0
LINE
  8
2
 62
     4
  6
continuous
 10
75.223830755569708
 20
126.07507081799562
 11
75.223830755569708
 21
126.37703845342341
  0
LINE
  8
2
 62
     7
  6
line_font22
 10
74.682164088903036
 20
125.50203845342341
 11
74.682164088903036
 21
128.87703845342341
  0
LINE
  8
2
 62
     4
  6
continuous
 10
74.452997422236365
 20
128.46037178675675
 11
74.911330755569708
 21
128.46037178675675
  0
LINE
  8
2
 62
     4
  6
continuous
 10
74.348830755569708
 20
128.35620512009007
 11
75.015497422236365
 21
128.35620512009007
  0
LINE
  8
2
 62
     4
  6
continuous
 10
75.015497422236365
 20
128.35620512009007
 11
74.911330755569708
 21
128.46037178675675
  0
LINE
  8
2
 62
     4
  6
continuous
 10
74.348830755569708
 20
128.35620512009007
 11
74.452997422236365
 21
128.46037178675675
  0
LINE
  8
2
 62
     4
  6
continuous
 10
81.182164088912799
 20
128.35620512008177
 11
81.182164088913083
 21
128.09370512008246
  0
LINE
  8
2
 62
     4
  6
continuous
 10
81.077997422246128
 20
128.46037178674845
 11
81.077997422245119
 21
128.09370512008246
  0
LINE
  8
2
 62
     4
  6
continuous
 10
80.619664088912771
 20
128.46037178674845
 11
80.619664088911492
 21
128.09370512008246
  0
LINE
  8
2
 62
     4
  6
continuous
 10
80.515497422246114
 20
128.35620512008177
 11
80.515497422245403
 21
128.09370512008246
  0
LINE
  8
2
 62
     4
  6
continuous
 10
75.015497422236365
 20
128.35620512009007
 11
75.015497422236081
 21
128.09370512008235
  0
LINE
  8
2
 62
     4
  6
continuous
 10
74.911330755569708
 20
128.46037178675675
 11
74.911330755568116
 21
128.09370512008229
  0
LINE
  8
2
 62
     4
  6
continuous
 10
74.452997422236365
 20
128.46037178675675
 11
74.452997422235228
 21
128.09370512008235
  0
LINE
  8
2
 62
     4
  6
continuous
 10
74.348830755569708
 20
128.35620512009007
 11
74.348830755568869
 21
128.09370512008229
  0
LINE
  8
2
 62
     4
  6
continuous
 10
79.848830755567789
 20
123.13490899512632
 11
80.390497422234475
 21
123.44764039093738
  0
LINE
  8
2
 62
     4
  6
continuous
 10
80.390497422234475
 20
123.44764039093738
 11
80.390497422234475
 21
124.07310318255946
  0
LINE
  8
2
 62
     4
  6
continuous
 10
80.390497422234475
 20
124.07310318255946
 11
79.848830755567789
 21
124.38583457837052
  0
LINE
  8
2
 62
     4
  6
continuous
 10
79.848830755567789
 20
124.38583457837052
 11
79.307164088901146
 21
124.07310318255946
  0
LINE
  8
2
 62
     4
  6
continuous
 10
79.307164088901146
 20
124.07310318255946
 11
79.307164088901146
 21
123.44764039093738
  0
LINE
  8
2
 62
     4
  6
continuous
 10
79.307164088901146
 20
123.44764039093738
 11
79.848830755567789
 21
123.13490899512632
  0
LINE
  8
2
 62
     7
  6
line_font22
 10
78.723830755567803
 20
123.76037178674844
 11
80.973830755567803
 21
123.76037178674844
  0
LINE
  8
2
 62
     7
  6
line_font22
 10
79.848830755567789
 20
122.63537178674844
 11
79.848830755567789
 21
124.88537178674844
  0
LINE
  8
2
 62
     4
  6
continuous
 10
75.682164088900507
 20
123.13490899512632
 11
75.140497422233821
 21
123.44764039093738
  0
LINE
  8
2
 62
     4
  6
continuous
 10
75.140497422233821
 20
123.44764039093738
 11
75.140497422233821
 21
124.07310318255946
  0
LINE
  8
2
 62
     4
  6
continuous
 10
75.140497422233821
 20
124.07310318255946
 11
75.682164088900507
 21
124.38583457837052
  0
LINE
  8
2
 62
     4
  6
continuous
 10
75.682164088900507
 20
124.38583457837052
 11
76.22383075556715
 21
124.07310318255946
  0
LINE
  8
2
 62
     4
  6
continuous
 10
76.22383075556715
 20
124.07310318255946
 11
76.22383075556715
 21
123.44764039093738
  0
LINE
  8
2
 62
     4
  6
continuous
 10
76.22383075556715
 20
123.44764039093738
 11
75.682164088900507
 21
123.13490899512632
  0
LINE
  8
2
 62
     7
  6
line_font22
 10
76.807164088900493
 20
123.76037178674844
 11
74.557164088900493
 21
123.76037178674846
  0
LINE
  8
2
 62
     7
  6
line_font22
 10
75.682164088900507
 20
122.63537178674844
 11
75.682164088900507
 21
124.88537178674844
  0
LINE
  8
2
 62
     3
  6
continuous
 10
243.78950096626829
 20
127.09370512008249
 11
242.78950096626829
 21
127.09370512008249
  0
LINE
  8
2
 62
     3
  6
continuous
 10
242.62283429960169
 20
124.67703845341586
 11
242.62283429960161
 21
126.9270384534159
  0
LINE
  8
2
 62
     3
  6
continuous
 10
252.45616763293503
 20
124.67703845341586
 11
252.45616763293503
 21
129.00269334558126
  0
LINE
  8
2
 62
     3
  6
continuous
 10
252.28950096626843
 20
124.67703845341586
 11
252.28950096626843
 21
126.9270384534159
  0
LINE
  8
2
 62
     3
  6
continuous
 10
243.78950096626829
 20
127.46870512008253
 11
243.45616763293503
 21
127.46870512008253
  0
LINE
  8
2
 62
     3
  6
continuous
 10
243.45616763293503
 20
127.34370512008249
 11
243.45616763293503
 21
127.46870512008253
  0
LINE
  8
2
 62
     3
  6
continuous
 10
252.28950096626843
 20
129.00269334558138
 11
252.28950096626866
 21
127.5103717867492
  0
LINE
  8
2
 62
     3
  6
continuous
 10
243.87283429960169
 20
127.17703845341586
 11
243.87283429960169
 21
127.3853717867492
  0
LINE
  8
2
 62
     3
  6
continuous
 10
242.78950096626829
 20
127.34370512008246
 11
243.45616763293503
 21
127.34370512008249
  0
LINE
  8
2
 62
     3
  6
continuous
 10
251.4561676329354
 20
127.34370512008246
 11
251.45616763293495
 21
127.46870512008253
  0
LINE
  8
2
 62
     3
  6
continuous
 10
252.12283429960178
 20
127.34370512008249
 11
251.4561676329354
 21
127.34370512008246
  0
LINE
  8
2
 62
     3
  6
continuous
 10
251.12283429960169
 20
127.46870512008246
 11
251.45616763293495
 21
127.46870512008253
  0
LINE
  8
2
 62
     3
  6
continuous
 10
251.03950096626812
 20
127.17703845341575
 11
251.03950096626812
 21
127.3853717867492
  0
LINE
  8
2
 62
     3
  6
continuous
 10
251.12283429960169
 20
127.09370512008249
 11
252.12283429960178
 21
127.09370512008249
  0
LINE
  8
2
 62
     3
  6
continuous
 10
242.62283429960161
 20
129.00269334558124
 11
242.62283429960169
 21
127.51037178674916
  0
LINE
  8
2
 62
     3
  6
continuous
 10
242.45616763293503
 20
124.67703845341586
 11
242.45616763293503
 21
129.00269334558135
  0
LINE
  8
2
 62
     2
  6
continuous
 10
250.37283429960115
 20
126.80203845341556
 11
250.37283429960169
 21
125.51037178674923
  0
LINE
  8
2
 62
     2
  6
continuous
 10
250.16450096626829
 20
127.01037178674927
 11
250.16450096626812
 21
125.71870512008257
  0
LINE
  8
2
 62
     2
  6
continuous
 10
251.95616763293418
 20
127.0937051200828
 11
250.24783429960161
 21
127.0937051200826
  0
LINE
  8
2
 62
     2
  6
continuous
 10
252.03950096626752
 20
127.01037178674427
 11
252.03950096626306
 21
126.9687051200826
  0
LINE
  8
2
 62
     2
  6
continuous
 10
244.53950096626821
 20
126.80203845341583
 11
244.53950096626812
 21
125.51037178674923
  0
LINE
  8
2
 62
     2
  6
continuous
 10
244.74783429960161
 20
127.01037178674909
 11
244.74783429960169
 21
125.71870512008269
  0
LINE
  8
2
 62
     2
  6
continuous
 10
242.95616763293253
 20
127.09370512008257
 11
244.66450096626829
 21
127.09370512008238
  0
LINE
  8
2
 62
     2
  6
continuous
 10
242.87283429959911
 20
127.01037178674795
 11
242.87283429960291
 21
126.96870512008253
  0
LINE
  8
2
 62
     2
  6
continuous
 10
244.83116763293509
 20
125.63537178674935
 11
250.08116763293481
 21
125.63537178674923
  0
LINE
  8
2
 62
     2
  6
continuous
 10
248.83116763293495
 20
125.46870512008276
 11
248.78950096626806
 21
125.4270384534159
  0
LINE
  8
2
 62
     2
  6
continuous
 10
248.83116763293495
 20
125.46870512008257
 11
248.87283429960223
 21
125.42703845341586
  0
LINE
  8
2
 62
     2
  6
continuous
 10
248.99783429960215
 20
125.42703845341586
 11
248.87283429960223
 21
125.42703845341586
  0
LINE
  8
2
 62
     2
  6
continuous
 10
249.03950096626843
 20
125.46870512008257
 11
248.99783429960215
 21
125.42703845341586
  0
LINE
  8
2
 62
     2
  6
continuous
 10
249.03950096626829
 20
125.46870512008257
 11
249.08116763293503
 21
125.4270384534159
  0
LINE
  8
2
 62
     2
  6
continuous
 10
250.28950096626843
 20
125.4270384534159
 11
249.08116763293503
 21
125.4270384534159
  0
LINE
  8
2
 62
     2
  6
continuous
 10
244.62283429960146
 20
125.4270384534159
 11
245.83116763293464
 21
125.4270384534159
  0
LINE
  8
2
 62
     2
  6
continuous
 10
245.87283429960161
 20
125.46870512008257
 11
245.83116763293464
 21
125.4270384534159
  0
LINE
  8
2
 62
     2
  6
continuous
 10
245.87283429960146
 20
125.46870512008257
 11
245.91450096626744
 21
125.42703845341595
  0
LINE
  8
2
 62
     2
  6
continuous
 10
246.03950096626798
 20
125.4270384534159
 11
245.91450096626744
 21
125.42703845341595
  0
LINE
  8
2
 62
     2
  6
continuous
 10
246.08116763293495
 20
125.46870512008257
 11
246.03950096626798
 21
125.4270384534159
  0
LINE
  8
2
 62
     2
  6
continuous
 10
246.08116763293495
 20
125.46870512008276
 11
246.12283429960161
 21
125.4270384534159
  0
LINE
  8
2
 62
     2
  6
continuous
 10
248.78950096626806
 20
125.4270384534159
 11
246.12283429960161
 21
125.4270384534159
  0
LINE
  8
2
 62
     2
  6
continuous
 10
250.45616763293449
 20
126.88537178674893
 11
251.37283429960087
 21
126.8853717867492
  0
LINE
  8
2
 62
     2
  6
continuous
 10
251.41450096626812
 20
126.92703845341586
 11
251.37283429960087
 21
126.8853717867492
  0
LINE
  8
2
 62
     2
  6
continuous
 10
251.41450096626798
 20
126.92703845341586
 11
251.45616763293472
 21
126.88537178674923
  0
LINE
  8
2
 62
     2
  6
continuous
 10
251.95616763292981
 20
126.88537178674932
 11
251.45616763293472
 21
126.88537178674923
  0
LINE
  8
2
 62
     2
  6
continuous
 10
242.95616763293623
 20
126.8853717867492
 11
243.45616763293509
 21
126.8853717867492
  0
LINE
  8
2
 62
     2
  6
continuous
 10
243.49783429960146
 20
126.9270384534159
 11
243.45616763293509
 21
126.8853717867492
  0
LINE
  8
2
 62
     2
  6
continuous
 10
244.45616763293486
 20
126.8853717867492
 11
243.53950096626852
 21
126.8853717867492
  0
LINE
  8
2
 62
     2
  6
continuous
 10
243.49783429960132
 20
126.9270384534159
 11
243.53950096626852
 21
126.8853717867492
  0
LINE
  8
2
 62
     7
  6
line_font22
 10
246.08116763293481
 20
126.10203845341586
 11
246.08116763293481
 21
123.71870512008257
  0
LINE
  8
2
 62
     4
  6
continuous
 10
246.41450096626812
 20
125.63537178674923
 11
246.41450096626812
 21
125.66853503434365
  0
LINE
  8
2
 62
     4
  6
continuous
 10
245.74783429960146
 20
125.63537178674923
 11
245.74783429960146
 21
125.66853503434365
  0
LINE
  8
2
 62
     7
  6
line_font22
 10
248.83116763295769
 20
126.10203845341454
 11
248.83116763295769
 21
123.71870512008124
  0
LINE
  8
2
 62
     4
  6
continuous
 10
249.16450096629103
 20
125.63537178674791
 11
249.16450096629103
 21
125.66853503434233
  0
LINE
  8
2
 62
     4
  6
continuous
 10
248.49783429962434
 20
125.63537178674791
 11
248.49783429962434
 21
125.66853503434233
  0
LINE
  8
2
 62
     4
  6
line_font21
 10
245.91450096626812
 20
124.69518827733935
 11
245.91450096626812
 21
125.63537178674923
  0
LINE
  8
2
 62
     4
  6
line_font21
 10
245.97283429960152
 20
124.54899479870102
 11
245.97283429960152
 21
125.63537178674923
  0
LINE
  8
2
 62
     4
  6
line_font21
 10
246.18950096626816
 20
124.54899479870102
 11
246.18950096626816
 21
125.63537178674923
  0
LINE
  8
2
 62
     4
  6
line_font21
 10
246.24783429960146
 20
124.69518827733935
 11
246.24783429960146
 21
125.63537178674923
  0
LINE
  8
2
 62
     4
  6
line_font21
 10
248.72283429962442
 20
124.54899479869968
 11
248.72283429962442
 21
125.63537178674791
  0
LINE
  8
2
 62
     4
  6
line_font21
 10
248.66450096629103
 20
124.69518827733802
 11
248.66450096629103
 21
125.63537178674791
  0
LINE
  8
2
 62
     4
  6
line_font21
 10
248.93950096629104
 20
124.54899479869968
 11
248.93950096629104
 21
125.63537178674791
  0
LINE
  8
2
 62
     4
  6
line_font21
 10
248.99783429962434
 20
124.69518827733802
 11
248.99783429962434
 21
125.63537178674791
  0
LINE
  8
2
 62
     7
  6
line_font22
 10
243.49783429960138
 20
126.11037178674925
 11
243.49783429960138
 21
128.55203845341589
  0
LINE
  8
2
 62
     4
  6
continuous
 10
243.70616763293472
 20
127.58417359694414
 11
243.70616763293168
 21
127.46870512008151
  0
LINE
  8
2
 62
     4
  6
continuous
 10
243.63950096626812
 20
127.69135289325733
 11
243.63950096627485
 21
127.46870512008151
  0
LINE
  8
2
 62
     4
  6
line_font21
 10
243.63950096626547
 20
127.46870512008151
 11
243.63950096626812
 21
126.88537178674923
  0
LINE
  8
2
 62
     4
  6
line_font21
 10
243.70616763293472
 20
127.46870512008151
 11
243.70616763293472
 21
126.88537178674923
  0
LINE
  8
2
 62
     7
  6
line_font22
 10
251.4145009662673
 20
126.1103717867493
 11
251.4145009662673
 21
128.55203845341595
  0
LINE
  8
2
 62
     4
  6
continuous
 10
251.20616763293395
 20
127.58417359694417
 11
251.20616763293549
 21
127.46870512008155
  0
LINE
  8
2
 62
     4
  6
continuous
 10
251.27283429959897
 20
127.46870512008151
 11
251.27283429960079
 21
127.69135273431161
  0
LINE
  8
2
 62
     4
  6
line_font21
 10
251.20616763293731
 20
127.46870512008151
 11
251.20616763293395
 21
126.88537178674927
  0
LINE
  8
2
 62
     4
  6
line_font21
 10
251.27283429960079
 20
126.88537178674927
 11
251.27283429960096
 21
127.46870512008151
  0
LINE
  8
2
 62
     4
  6
line_font21
 10
251.62283429960388
 20
127.34370512008185
 11
251.62283429960064
 21
126.88537178674927
  0
LINE
  8
2
 62
     4
  6
line_font21
 10
251.55616763293204
 20
127.34370512008185
 11
251.55616763293403
 21
126.88537178674927
  0
LINE
  8
2
 62
     4
  6
continuous
 10
251.55616763293403
 20
127.69135289325737
 11
251.55616763293358
 21
127.34370512008185
  0
LINE
  8
2
 62
     4
  6
continuous
 10
251.62283429960064
 20
127.58417359694417
 11
251.6228342995885
 21
127.34370512008185
  0
LINE
  8
2
 62
     4
  6
line_font21
 10
243.28950096627352
 20
127.34370512008446
 11
243.28950096626806
 21
126.88537178674923
  0
LINE
  8
2
 62
     4
  6
line_font21
 10
243.3561676329349
 20
126.88537178674923
 11
243.35616763292859
 21
127.34370512008451
  0
LINE
  8
2
 62
     4
  6
continuous
 10
243.35616763293513
 20
127.34370512008446
 11
243.3561676329349
 21
127.69135273431161
  0
LINE
  8
2
 62
     4
  6
continuous
 10
243.28950096626806
 20
127.58417359694414
 11
243.28950096626193
 21
127.34370512008446
  0
LINE
  8
2
 62
     4
  6
continuous
 10
243.08116763293472
 20
126.8020384534159
 11
243.91450096626806
 21
126.8020384534159
  0
LINE
  8
2
 62
     4
  6
continuous
 10
243.08116763293472
 20
126.8020384534159
 11
243.08116763293472
 21
126.88537178674923
  0
LINE
  8
2
 62
     4
  6
continuous
 10
243.91450096626806
 20
126.8020384534159
 11
243.91450096626806
 21
126.88537178674923
  0
LINE
  8
2
 62
     4
  6
continuous
 10
243.12283429960155
 20
126.8020384534159
 11
243.12283429960155
 21
126.7139258849015
  0
LINE
  8
2
 62
     4
  6
continuous
 10
243.87283429960155
 20
126.8020384534159
 11
243.87283429960155
 21
126.7139258849015
  0
LINE
  8
2
 62
     4
  6
continuous
 10
250.99783429960064
 20
126.8020384534159
 11
251.83116763293395
 21
126.8020384534159
  0
LINE
  8
2
 62
     4
  6
continuous
 10
250.99783429960064
 20
126.8020384534159
 11
250.99783429960064
 21
126.88537178674927
  0
LINE
  8
2
 62
     4
  6
continuous
 10
251.83116763293395
 20
126.8020384534159
 11
251.83116763293395
 21
126.88537178674927
  0
LINE
  8
2
 62
     4
  6
continuous
 10
251.03950096626744
 20
126.8020384534159
 11
251.03950096626744
 21
126.7139258849015
  0
LINE
  8
2
 62
     4
  6
continuous
 10
251.78950096626744
 20
126.8020384534159
 11
251.78950096626744
 21
126.7139258849015
  0
LINE
  8
2
 62
     3
  6
line_font21
 10
131.80477995039308
 20
124.59370512008252
 11
140.13811328372631
 21
124.59370512008252
  0
LINE
  8
2
 62
     7
  6
line_font22
 10
130.62977995039085
 20
123.76037178674876
 11
134.00477995039085
 21
123.76037178674876
  0
LINE
  8
2
 62
     4
  6
continuous
 10
131.50477995039085
 20
124.40203845341546
 11
131.50477995039085
 21
123.11870512008207
  0
LINE
  8
2
 62
     4
  6
continuous
 10
131.04644661705751
 20
124.22946888046533
 11
131.04644661705751
 21
123.29127469303219
  0
LINE
  8
2
 62
     4
  6
continuous
 10
131.13672439483528
 20
124.38583457837083
 11
131.50477995039085
 21
124.38583457837083
  0
LINE
  8
2
 62
     4
  6
continuous
 10
131.13672439483528
 20
124.07310318255982
 11
131.50477995039085
 21
124.07310318255982
  0
LINE
  8
2
 62
     4
  6
continuous
 10
131.13672439483528
 20
123.44764039093771
 11
131.50477995039085
 21
123.44764039093771
  0
LINE
  8
2
 62
     4
  6
continuous
 10
131.13672439483528
 20
123.13490899512669
 11
131.50477995039085
 21
123.13490899512669
  0
LINE
  8
2
 62
     4
  6
continuous
 10
131.67144661705751
 20
124.46870512008209
 11
131.67144661705751
 21
123.05203845341543
  0
LINE
  8
2
 62
     4
  6
continuous
 10
131.50477995039085
 20
124.40203845341546
 11
131.67144661705751
 21
124.40203845341546
  0
LINE
  8
2
 62
     4
  6
continuous
 10
131.50477995039085
 20
123.11870512008207
 11
131.67144661705751
 21
123.11870512008207
  0
LINE
  8
2
 62
     4
  6
continuous
 10
131.50477995039085
 20
123.82287178674876
 11
131.67144661705751
 21
123.75876922264618
  0
LINE
  8
2
 62
     4
  6
continuous
 10
131.50477995039085
 20
123.73953845341543
 11
131.67144661705751
 21
123.67543588931285
  0
LINE
  8
2
 62
     4
  6
continuous
 10
131.67144661705751
 20
124.46870512008209
 11
131.80477995039087
 21
124.46870512008209
  0
LINE
  8
2
 62
     4
  6
continuous
 10
131.67144661705751
 20
123.05203845341543
 11
131.80477995039087
 21
123.05203845341543
  0
LINE
  8
2
 62
     4
  6
continuous
 10
133.58811328372417
 20
123.98953845341543
 11
133.58811328372417
 21
123.53120512008209
  0
LINE
  8
2
 62
     4
  6
continuous
 10
133.48394661705751
 20
124.09370512008209
 11
133.48394661705751
 21
123.42703845341543
  0
LINE
  8
2
 62
     4
  6
continuous
 10
133.48394661705751
 20
123.42703845341543
 11
133.58811328372417
 21
123.53120512008209
  0
LINE
  8
2
 62
     4
  6
continuous
 10
133.48394661705751
 20
124.09370512008209
 11
133.58811328372417
 21
123.98953845341543
  0
LINE
  8
2
 62
     7
  6
line_font22
 10
141.31311328372843
 20
123.76037178674876
 11
137.93811328372843
 21
123.76037178674876
  0
LINE
  8
2
 62
     4
  6
continuous
 10
140.4381132837284
 20
124.40203845341546
 11
140.4381132837284
 21
123.11870512008207
  0
LINE
  8
2
 62
     4
  6
continuous
 10
140.89644661706177
 20
124.22946888046533
 11
140.89644661706177
 21
123.29127469303219
  0
LINE
  8
2
 62
     4
  6
continuous
 10
140.806168839284
 20
124.38583457837083
 11
140.4381132837284
 21
124.38583457837083
  0
LINE
  8
2
 62
     4
  6
continuous
 10
140.806168839284
 20
124.07310318255982
 11
140.4381132837284
 21
124.07310318255982
  0
LINE
  8
2
 62
     4
  6
continuous
 10
140.806168839284
 20
123.44764039093771
 11
140.4381132837284
 21
123.44764039093771
  0
LINE
  8
2
 62
     4
  6
continuous
 10
140.806168839284
 20
123.13490899512669
 11
140.4381132837284
 21
123.13490899512669
  0
LINE
  8
2
 62
     4
  6
continuous
 10
140.27144661706177
 20
124.46870512008209
 11
140.27144661706177
 21
123.05203845341543
  0
LINE
  8
2
 62
     4
  6
continuous
 10
140.4381132837284
 20
124.40203845341546
 11
140.27144661706177
 21
124.40203845341546
  0
LINE
  8
2
 62
     4
  6
continuous
 10
140.4381132837284
 20
123.11870512008207
 11
140.27144661706177
 21
123.11870512008207
  0
LINE
  8
2
 62
     4
  6
continuous
 10
140.4381132837284
 20
123.82287178674876
 11
140.27144661706177
 21
123.75876922264618
  0
LINE
  8
2
 62
     4
  6
continuous
 10
140.4381132837284
 20
123.73953845341543
 11
140.27144661706177
 21
123.67543588931285
  0
LINE
  8
2
 62
     4
  6
continuous
 10
140.27144661706177
 20
124.46870512008209
 11
140.13811328372842
 21
124.46870512008209
  0
LINE
  8
2
 62
     4
  6
continuous
 10
140.27144661706177
 20
123.05203845341543
 11
140.13811328372842
 21
123.05203845341543
  0
LINE
  8
2
 62
     4
  6
continuous
 10
138.35477995039508
 20
123.98953845341543
 11
138.35477995039508
 21
123.53120512008209
  0
LINE
  8
2
 62
     4
  6
continuous
 10
138.45894661706177
 20
124.09370512008209
 11
138.45894661706177
 21
123.42703845341543
  0
LINE
  8
2
 62
     4
  6
continuous
 10
138.45894661706177
 20
123.42703845341543
 11
138.35477995039508
 21
123.53120512008209
  0
LINE
  8
2
 62
     4
  6
continuous
 10
138.45894661706177
 20
124.09370512008209
 11
138.35477995039508
 21
123.98953845341543
  0
LINE
  8
2
 62
     7
  6
continuous
 10
172.63811328372634
 20
131.26037178674918
 11
172.63811328372634
 21
129.59370512008252
  0
LINE
  8
2
 62
     7
  6
continuous
 10
172.63811328372634
 20
125.42703845341585
 11
172.63811328372634
 21
123.76037178674918
  0
LINE
  8
2
 62
     7
  6
continuous
 10
174.30477995039308
 20
131.26037178674918
 11
174.30477995039308
 21
129.59370512008252
  0
LINE
  8
2
 62
     7
  6
continuous
 10
174.30477995039308
 20
125.42703845341585
 11
174.30477995039308
 21
123.76037178674918
  0
LINE
  8
2
 62
     7
  6
continuous
 10
172.63811328372634
 20
125.42703845341585
 11
172.01311328372634
 21
125.42703845341585
  0
LINE
  8
2
 62
     7
  6
continuous
 10
173.26311328372634
 20
129.59370512008252
 11
172.63811328372634
 21
129.59370512008252
  0
LINE
  8
2
 62
     7
  6
continuous
 10
173.26311328372634
 20
129.59370512008252
 11
172.01311328372634
 21
125.42703845341585
  0
LINE
  8
2
 62
     7
  6
continuous
 10
174.30477995039308
 20
125.42703845341585
 11
173.67977995039308
 21
125.42703845341585
  0
LINE
  8
2
 62
     7
  6
continuous
 10
174.92977995039308
 20
129.59370512008252
 11
174.30477995039308
 21
129.59370512008252
  0
LINE
  8
2
 62
     7
  6
continuous
 10
174.92977995039308
 20
129.59370512008252
 11
173.67977995039308
 21
125.42703845341585
  0
LINE
  8
2
 62
     3
  6
continuous
 10
210.76311328372634
 20
130.05203845341612
 11
210.76311328372634
 21
130.42703845341578
  0
LINE
  8
2
 62
     3
  6
continuous
 10
211.17977995039303
 20
130.05203845341612
 11
211.17977995039303
 21
130.42703845341578
  0
LINE
  8
2
 62
     3
  6
continuous
 10
174.30477995039212
 20
130.42703845341583
 11
210.76311328373561
 21
130.42703845341578
  0
LINE
  8
2
 62
     3
  6
continuous
 10
174.30477995039212
 20
130.26037178674915
 11
210.76311328373561
 21
130.26037178674915
  0
LINE
  8
2
 62
     3
  6
line_font21
 10
211.17977995039303
 20
124.59370512008236
 11
211.17977995039303
 21
130.05203845341612
  0
LINE
  8
2
 62
     3
  6
line_font21
 10
210.76311328372634
 20
124.59370512008236
 11
210.76311328372634
 21
130.05203845341612
  0
LINE
  8
2
 62
     3
  6
line_font21
 10
211.17977995039362
 20
124.59370512008255
 11
215.13811328372634
 21
124.59370512008252
  0
LINE
  8
2
 62
     3
  6
line_font21
 10
206.80477995039317
 20
124.59370512008248
 11
210.76311328372634
 21
124.59370512008255
  0
LINE
  8
2
 62
     7
  6
continuous
 10
133.60858157669941
 20
120.56851994042002
 11
133.87640974740214
 21
120.88770512505292
  0
LINE
  8
2
 62
     7
  6
continuous
 10
133.92977995039334
 20
126.67698937562189
 11
133.92977995039334
 21
127.09370512008243
  0
LINE
  8
2
 62
     7
  6
continuous
 10
127.92977995039334
 20
127.09370512008243
 11
127.92977995039334
 21
126.67703845341578
  0
LINE
  8
2
 62
     2
  6
continuous
 10
132.5893134192894
 20
124.3853717867491
 11
133.07852995039332
 21
124.3853717867491
  0
LINE
  8
2
 62
     2
  6
continuous
 10
133.07852995039332
 20
124.3853717867491
 11
133.07852995039332
 21
123.1353717867491
  0
LINE
  8
2
 62
     2
  6
continuous
 10
132.5893134192894
 20
123.1353717867491
 11
133.07852995039332
 21
123.1353717867491
  0
LINE
  8
2
 62
     2
  6
continuous
 10
132.57830099883964
 20
123.76037178674872
 11
132.53686328372663
 21
123.71893407163577
  0
LINE
  8
2
 62
     2
  6
continuous
 10
132.57830099883964
 20
123.76037178674872
 11
132.53686328372663
 21
123.80180950186173
  0
LINE
  8
2
 62
     7
  6
continuous
 10
130.01311328372668
 20
126.70203845341575
 11
130.03811328372666
 21
126.67703845341578
  0
LINE
  8
2
 62
     7
  6
continuous
 10
130.01311328372663
 20
126.70203845341575
 11
129.98811328372665
 21
126.67703845341578
  0
LINE
  8
2
 62
     7
  6
line_font22
 10
130.01311328372691
 20
125.50203845341578
 11
130.01311328372691
 21
128.87703845341576
  0
LINE
  8
2
 62
     4
  6
continuous
 10
129.37144661706023
 20
126.37703845341578
 11
130.65477995039356
 21
126.37703845341578
  0
LINE
  8
2
 62
     4
  6
continuous
 10
129.54401619001032
 20
125.91870512008245
 11
130.48221037744347
 21
125.91870512008245
  0
LINE
  8
2
 62
     4
  6
continuous
 10
129.3876504921048
 20
126.00898289786024
 11
129.3876504921048
 21
126.37703845341578
  0
LINE
  8
2
 62
     4
  6
continuous
 10
129.70038188791585
 20
126.00898289786024
 11
129.70038188791585
 21
126.37703845341578
  0
LINE
  8
2
 62
     4
  6
continuous
 10
130.32584467953794
 20
126.00898289786024
 11
130.32584467953794
 21
126.37703845341578
  0
LINE
  8
2
 62
     4
  6
continuous
 10
130.63857607534896
 20
126.00898289786024
 11
130.63857607534896
 21
126.37703845341578
  0
LINE
  8
2
 62
     4
  6
continuous
 10
129.30477995039357
 20
126.54370512008245
 11
130.72144661706022
 21
126.54370512008245
  0
LINE
  8
2
 62
     4
  6
continuous
 10
129.37144661706023
 20
126.37703845341578
 11
129.37144661706023
 21
126.54370512008245
  0
LINE
  8
2
 62
     4
  6
continuous
 10
130.65477995039356
 20
126.37703845341578
 11
130.65477995039356
 21
126.54370512008245
  0
LINE
  8
2
 62
     4
  6
continuous
 10
129.95061328372688
 20
126.37703845341578
 11
130.01471584782945
 21
126.54370512008245
  0
LINE
  8
2
 62
     4
  6
continuous
 10
130.03394661706022
 20
126.37703845341578
 11
130.09804918116279
 21
126.54370512008245
  0
LINE
  8
2
 62
     4
  6
continuous
 10
129.30477995039357
 20
126.54370512008245
 11
129.30477995039357
 21
126.67703845341578
  0
LINE
  8
2
 62
     4
  6
continuous
 10
130.72144661706022
 20
126.54370512008245
 11
130.72144661706022
 21
126.67703845341578
  0
LINE
  8
2
 62
     4
  6
continuous
 10
129.78394661706022
 20
128.46037178674911
 11
130.24227995039357
 21
128.46037178674911
  0
LINE
  8
2
 62
     4
  6
continuous
 10
130.34644661706022
 20
128.35620512008245
 11
130.34644661706022
 21
128.09370512008243
  0
LINE
  8
2
 62
     4
  6
continuous
 10
129.67977995039357
 20
128.35620512008245
 11
129.67977995039357
 21
128.09370512008243
  0
LINE
  8
2
 62
     4
  6
continuous
 10
130.24227995039357
 20
128.46037178674911
 11
130.24227995039357
 21
128.09370512008243
  0
LINE
  8
2
 62
     4
  6
continuous
 10
129.78394661706022
 20
128.46037178674911
 11
129.78394661706022
 21
128.09370512008243
  0
LINE
  8
2
 62
     4
  6
continuous
 10
129.67977995039357
 20
128.35620512008245
 11
130.34644661706022
 21
128.35620512008245
  0
LINE
  8
2
 62
     4
  6
continuous
 10
130.34644661706022
 20
128.35620512008245
 11
130.24227995039357
 21
128.46037178674911
  0
LINE
  8
2
 62
     4
  6
continuous
 10
129.67977995039357
 20
128.35620512008245
 11
129.78394661706022
 21
128.46037178674911
  0
LINE
  8
2
 62
     7
  6
continuous
 10
127.92977995039236
 20
126.67703845341573
 11
132.93794140082497
 21
126.67703845341578
  0
LINE
  8
2
 62
     4
  6
continuous
 10
133.48394661705751
 20
123.42703845341543
 11
133.07852995039386
 21
123.42703845341471
  0
LINE
  8
2
 62
     4
  6
continuous
 10
133.48394661705751
 20
124.09370512008209
 11
133.07852995039386
 21
124.09370512007713
  0
LINE
  8
2
 62
     4
  6
continuous
 10
133.58811328372417
 20
123.53120512008209
 11
133.07852995039386
 21
123.53120512008709
  0
LINE
  8
2
 62
     4
  6
continuous
 10
133.58811328372417
 20
123.98953845341543
 11
133.07852995039386
 21
123.98953845341642
  0
LINE
  8
2
 62
     7
  6
continuous
 10
138.3343116574203
 20
120.56851994041975
 11
138.06648348671754
 21
120.88770512505266
  0
LINE
  8
2
 62
     7
  6
continuous
 10
138.01311328372634
 20
126.67698937562162
 11
138.01311328372634
 21
127.09370512008213
  0
LINE
  8
2
 62
     7
  6
continuous
 10
144.01311328372634
 20
126.67703845341546
 11
139.00495183329471
 21
126.67703845341546
  0
LINE
  8
2
 62
     7
  6
continuous
 10
144.01311328372634
 20
127.09370512008213
 11
144.01311328372634
 21
126.67703845341546
  0
LINE
  8
2
 62
     2
  6
continuous
 10
138.86436328372636
 20
124.38537178674881
 11
138.86436328372636
 21
123.13537178674881
  0
LINE
  8
2
 62
     2
  6
continuous
 10
139.36459223528004
 20
123.76037178674846
 11
139.40602995039305
 21
123.71893407163546
  0
LINE
  8
2
 62
     2
  6
continuous
 10
139.36459223528004
 20
123.76037178674846
 11
139.40602995039305
 21
123.80180950186146
  0
LINE
  8
2
 62
     7
  6
line_font22
 10
141.9297799503928
 20
125.50203845341548
 11
141.9297799503928
 21
128.87703845341548
  0
LINE
  8
2
 62
     7
  6
continuous
 10
141.92977995039342
 20
126.70203845341544
 11
141.95477995039343
 21
126.67703845341546
  0
LINE
  8
2
 62
     7
  6
continuous
 10
141.9297799503934
 20
126.70203845341544
 11
141.90477995039342
 21
126.67703845341546
  0
LINE
  8
2
 62
     4
  6
continuous
 10
141.288113283727
 20
126.37703845341544
 11
142.57144661706033
 21
126.37703845341544
  0
LINE
  8
2
 62
     4
  6
continuous
 10
141.46068285667707
 20
125.91870512008211
 11
142.39887704411024
 21
125.91870512008211
  0
LINE
  8
2
 62
     4
  6
continuous
 10
141.30431715877157
 20
126.00898289785989
 11
141.30431715877157
 21
126.37703845341544
  0
LINE
  8
2
 62
     4
  6
continuous
 10
141.6170485545826
 20
126.00898289785989
 11
141.6170485545826
 21
126.37703845341544
  0
LINE
  8
2
 62
     4
  6
continuous
 10
142.24251134620471
 20
126.00898289785989
 11
142.24251134620471
 21
126.37703845341544
  0
LINE
  8
2
 62
     4
  6
continuous
 10
142.55524274201574
 20
126.00898289785989
 11
142.55524274201574
 21
126.37703845341544
  0
LINE
  8
2
 62
     4
  6
continuous
 10
141.22144661706034
 20
126.54370512008211
 11
142.63811328372699
 21
126.54370512008211
  0
LINE
  8
2
 62
     4
  6
continuous
 10
141.288113283727
 20
126.37703845341544
 11
141.288113283727
 21
126.54370512008211
  0
LINE
  8
2
 62
     4
  6
continuous
 10
142.57144661706033
 20
126.37703845341544
 11
142.57144661706033
 21
126.54370512008211
  0
LINE
  8
2
 62
     4
  6
continuous
 10
141.86727995039365
 20
126.37703845341544
 11
141.93138251449622
 21
126.54370512008211
  0
LINE
  8
2
 62
     4
  6
continuous
 10
141.95061328372699
 20
126.37703845341544
 11
142.01471584782956
 21
126.54370512008211
  0
LINE
  8
2
 62
     4
  6
continuous
 10
141.22144661706034
 20
126.54370512008211
 11
141.22144661706034
 21
126.67703845341546
  0
LINE
  8
2
 62
     4
  6
continuous
 10
142.63811328372699
 20
126.54370512008211
 11
142.63811328372699
 21
126.67703845341546
  0
LINE
  8
2
 62
     4
  6
continuous
 10
141.70061328372699
 20
128.46037178674877
 11
142.15894661706034
 21
128.46037178674877
  0
LINE
  8
2
 62
     4
  6
continuous
 10
142.26311328372699
 20
128.35620512008211
 11
142.26311328372699
 21
128.09370512008212
  0
LINE
  8
2
 62
     4
  6
continuous
 10
141.59644661706034
 20
128.35620512008211
 11
141.59644661706034
 21
128.09370512008212
  0
LINE
  8
2
 62
     4
  6
continuous
 10
142.15894661706034
 20
128.46037178674877
 11
142.15894661706034
 21
128.09370512008212
  0
LINE
  8
2
 62
     4
  6
continuous
 10
141.70061328372699
 20
128.46037178674877
 11
141.70061328372699
 21
128.09370512008212
  0
LINE
  8
2
 62
     4
  6
continuous
 10
141.59644661706034
 20
128.35620512008211
 11
142.26311328372699
 21
128.35620512008211
  0
LINE
  8
2
 62
     4
  6
continuous
 10
142.26311328372699
 20
128.35620512008211
 11
142.15894661706034
 21
128.46037178674877
  0
LINE
  8
2
 62
     4
  6
continuous
 10
141.59644661706034
 20
128.35620512008211
 11
141.70061328372699
 21
128.46037178674877
  0
LINE
  8
2
 62
     2
  6
continuous
 10
139.35357981483006
 20
124.38537178674937
 11
138.86436328372636
 21
124.38537178674881
  0
LINE
  8
2
 62
     2
  6
continuous
 10
139.35357981482917
 20
123.13537178674449
 11
138.86436328372636
 21
123.13537178674881
  0
LINE
  8
2
 62
     4
  6
continuous
 10
138.45894661706177
 20
123.42703845341543
 11
138.8643632837246
 21
123.42703845341327
  0
LINE
  8
2
 62
     4
  6
continuous
 10
138.45894661706177
 20
124.09370512008209
 11
138.8643632837246
 21
124.09370512007777
  0
LINE
  8
2
 62
     4
  6
continuous
 10
138.35477995039508
 20
123.53120512008209
 11
138.8643632837246
 21
123.53120512008698
  0
LINE
  8
2
 62
     4
  6
continuous
 10
138.35477995039508
 20
123.98953845341543
 11
138.8643632837246
 21
123.98953845341369
  0
LINE
  8
2
 62
     7
  6
continuous
 10
127.92977995039298
 20
127.0937051200827
 11
144.01311328372626
 21
127.09370512008282
  0
LINE
  8
2
 62
     7
  6
line_font22
 10
157.88811328372617
 20
126.11037178674931
 11
157.88811328372617
 21
128.55203845341595
  0
LINE
  8
2
 62
     4
  6
continuous
 10
157.67977995039286
 20
127.5841735969442
 11
157.67977995039433
 21
127.46870512008161
  0
LINE
  8
2
 62
     4
  6
continuous
 10
158.09644661705951
 20
127.5841735969442
 11
158.09644661705647
 21
127.46870512008161
  0
LINE
  8
2
 62
     4
  6
continuous
 10
157.74644661705781
 20
127.46870512008157
 11
157.74644661705955
 21
127.69135273431166
  0
LINE
  8
2
 62
     4
  6
continuous
 10
158.02977995039288
 20
127.69135289325739
 11
158.02977995039953
 21
127.46870512008157
  0
LINE
  8
2
 62
     4
  6
line_font21
 10
157.47144661705951
 20
126.80203845341596
 11
158.30477995039286
 21
126.80203845341596
  0
LINE
  8
2
 62
     4
  6
line_font21
 10
157.47144661705951
 20
126.80203845341596
 11
157.47144661705951
 21
126.88537178674929
  0
LINE
  8
2
 62
     4
  6
line_font21
 10
158.30477995039286
 20
126.80203845341596
 11
158.30477995039286
 21
126.88537178674929
  0
LINE
  8
2
 62
     4
  6
line_font21
 10
157.5131132837262
 20
126.80203845341596
 11
157.5131132837262
 21
126.71392588490156
  0
LINE
  8
2
 62
     4
  6
line_font21
 10
158.26311328372623
 20
126.80203845341596
 11
158.26311328372623
 21
126.71392588490156
  0
LINE
  8
2
 62
     4
  6
line_font21
 10
157.67977995039612
 20
127.46870512008157
 11
157.67977995039286
 21
126.88537178674929
  0
LINE
  8
2
 62
     4
  6
line_font21
 10
157.74644661705955
 20
126.88537178674929
 11
157.74644661705983
 21
127.46870512008157
  0
LINE
  8
2
 62
     4
  6
line_font21
 10
158.02977995039026
 20
127.46870512008157
 11
158.02977995039288
 21
126.88537178674929
  0
LINE
  8
2
 62
     4
  6
line_font21
 10
158.09644661705948
 20
127.46870512008157
 11
158.09644661705951
 21
126.88537178674929
  0
LINE
  8
2
 62
     3
  6
continuous
 10
105.97069826315783
 20
130.42703845341589
 11
105.97069826315771
 21
124.59370512008255
  0
LINE
  8
2
 62
     3
  6
continuous
 10
106.30403159649109
 20
130.42703845341589
 11
106.30403159649097
 21
124.59370512008255
  0
LINE
  8
2
 62
     7
  6
continuous
 10
110.4706982631578
 20
131.2603717867492
 11
110.4706982631578
 21
129.59370512008255
  0
LINE
  8
2
 62
     7
  6
continuous
 10
110.4706982631578
 20
125.42703845341589
 11
110.4706982631578
 21
123.76037178674922
  0
LINE
  8
2
 62
     7
  6
continuous
 10
112.13736492982449
 20
131.2603717867492
 11
112.13736492982449
 21
129.59370512008255
  0
LINE
  8
2
 62
     7
  6
continuous
 10
112.13736492982449
 20
125.42703845341589
 11
112.13736492982449
 21
123.76037178674922
  0
LINE
  8
2
 62
     3
  6
continuous
 10
105.97069826315783
 20
130.42703845341583
 11
110.47069826315818
 21
130.42703845341589
  0
LINE
  8
2
 62
     3
  6
continuous
 10
106.30403159649099
 20
130.26037178674915
 11
110.4706982631582
 21
130.26037178674915
  0
LINE
  8
2
 62
     3
  6
continuous
 10
105.97069826315783
 20
124.59370512008252
 11
110.4706982631582
 21
124.59370512008252
  0
LINE
  8
2
 62
     7
  6
continuous
 10
110.4706982631578
 20
125.42703845341589
 11
109.84569826315779
 21
125.42703845341589
  0
LINE
  8
2
 62
     7
  6
continuous
 10
111.0956982631578
 20
129.59370512008255
 11
110.4706982631578
 21
129.59370512008255
  0
LINE
  8
2
 62
     7
  6
continuous
 10
111.0956982631578
 20
129.59370512008255
 11
109.84569826315779
 21
125.42703845341589
  0
LINE
  8
2
 62
     7
  6
continuous
 10
112.13736492982449
 20
125.42703845341589
 11
111.51236492982449
 21
125.42703845341589
  0
LINE
  8
2
 62
     7
  6
continuous
 10
112.76236492982449
 20
129.59370512008255
 11
112.13736492982449
 21
129.59370512008255
  0
LINE
  8
2
 62
     7
  6
continuous
 10
112.76236492982449
 20
129.59370512008255
 11
111.51236492982449
 21
125.42703845341589
  0
LINE
  8
2
 62
     3
  6
continuous
 10
106.30403159649093
 20
127.46870512008172
 11
110.45819826315795
 21
127.46870512008202
  0
LINE
  8
2
 62
     3
  6
continuous
 10
106.30403159649093
 20
127.09370512008209
 11
110.3456982631579
 21
127.09370512008191
  0
LINE
  8
2
 62
     3
  6
continuous
 10
112.13736492982487
 20
130.42703845341589
 11
172.63811328372543
 21
130.42703845341583
  0
LINE
  8
2
 62
     3
  6
continuous
 10
112.13736492982487
 20
130.26037178674915
 11
172.63811328372543
 21
130.26037178674915
  0
LINE
  8
2
 62
     3
  6
continuous
 10
112.0123649298242
 20
127.09370512008218
 11
172.51311328372665
 21
127.09370512008213
  0
LINE
  8
2
 62
     7
  6
continuous
 10
234.82192287679166
 20
131.26037178674892
 11
234.82192287679166
 21
129.59370512008223
  0
LINE
  8
2
 62
     7
  6
continuous
 10
234.82192287679166
 20
125.42703845341558
 11
234.82192287679166
 21
123.76037178674892
  0
LINE
  8
2
 62
     7
  6
continuous
 10
234.82192287679166
 20
125.42703845341558
 11
234.19692287679166
 21
125.42703845341558
  0
LINE
  8
2
 62
     7
  6
continuous
 10
235.44692287679166
 20
129.59370512008223
 11
234.82192287679166
 21
129.59370512008223
  0
LINE
  8
2
 62
     7
  6
continuous
 10
235.44692287679166
 20
129.59370512008223
 11
234.19692287679166
 21
125.42703845341558
  0
LINE
  8
2
 62
     3
  6
continuous
 10
211.17977995038649
 20
130.42703845341578
 11
234.82192287679158
 21
130.42703845341583
  0
LINE
  8
2
 62
     3
  6
continuous
 10
211.17977995038649
 20
130.26037178674915
 11
234.82192287679158
 21
130.26037178674915
  0
LINE
  8
2
 62
     3
  6
continuous
 10
174.17977995039325
 20
127.09370512008206
 11
234.6969228767918
 21
127.09370512008213
  0
LINE
  8
2
 62
     7
  6
line_font22
 10
210.97144661705977
 20
116.26956954073962
 11
210.97144661705977
 21
117.206363126971
  0
LINE
  8
2
 62
     7
  6
continuous
 10
143.888113283726
 20
130.0520384534158
 11
143.88811328372634
 21
127.09370512008184
  0
LINE
  8
2
 62
     7
  6
continuous
 10
128.05477995039308
 20
128.09370512008266
 11
143.88811328372614
 21
128.09370512008266
  0
LINE
  8
2
 62
     7
  6
continuous
 10
128.05477995039305
 20
127.66069241819044
 11
143.8881132837262
 21
127.66069241819051
  0
LINE
  8
2
 62
     7
  6
continuous
 10
128.05477995039328
 20
129.88537178674943
 11
143.88811328372594
 21
129.88537178674929
  0
LINE
  8
2
 62
     7
  6
continuous
 10
128.05477995039328
 20
130.05203845341603
 11
143.88811328372586
 21
130.05203845341606
  0
LINE
  8
2
 62
     3
  6
continuous
 10
112.12486492982407
 20
127.46870512008172
 11
128.05477995039305
 21
127.46870512008179
  0
LINE
  8
2
 62
     3
  6
line_font21
 10
128.05477995039305
 20
127.46870512008186
 11
143.88811328372648
 21
127.46870512008175
  0
LINE
  8
2
 62
     3
  6
continuous
 10
143.88811328372648
 20
127.46870512008152
 11
172.62561328372652
 21
127.46870512008161
  0
LINE
  8
2
 62
     7
  6
continuous
 10
203.05477995038939
 20
129.88537178674929
 11
218.88811328372293
 21
129.88537178674937
  0
LINE
  8
2
 62
     7
  6
continuous
 10
203.05477995038939
 20
130.05203845341606
 11
218.88811328372293
 21
130.05203845341629
  0
LINE
  8
2
 62
     7
  6
continuous
 10
203.05477995038916
 20
128.09370512008275
 11
218.88811328372316
 21
128.09370512008263
  0
LINE
  8
2
 62
     7
  6
continuous
 10
203.05477995038916
 20
127.66069241819032
 11
218.88811328372324
 21
127.66069241819021
  0
LINE
  8
2
 62
     3
  6
continuous
 10
174.29227995039309
 20
127.46870512008161
 11
203.05477995039089
 21
127.46870512008161
  0
LINE
  8
2
 62
     3
  6
line_font21
 10
203.05477995039089
 20
127.46870512008152
 11
218.88811328372316
 21
127.46870512008202
  0
LINE
  8
2
 62
     3
  6
continuous
 10
218.88811328372316
 20
127.46870512008149
 11
234.80942287679161
 21
127.46870512008161
  0
LINE
  8
2
 62
     4
  6
continuous
 10
152.72144661706002
 20
125.71870512008213
 11
152.72144661706002
 21
125.75186836767655
  0
LINE
  8
2
 62
     4
  6
continuous
 10
152.05477995039331
 20
125.71870512008213
 11
152.05477995039331
 21
125.75186836767655
  0
LINE
  8
2
 62
     4
  6
line_font21
 10
152.2214466170596
 20
125.42703845341603
 11
152.22144661706008
 21
125.71870512008213
  0
LINE
  8
2
 62
     4
  6
line_font21
 10
152.27977995039384
 20
125.42703845341603
 11
152.27977995039339
 21
125.71870512008213
  0
LINE
  8
2
 62
     4
  6
line_font21
 10
152.49644661706154
 20
125.42703845341603
 11
152.49644661706003
 21
125.71870512008213
  0
LINE
  8
2
 62
     4
  6
line_font21
 10
152.55477995039368
 20
125.42703845341603
 11
152.55477995039331
 21
125.71870512008213
  0
LINE
  8
2
 62
     4
  6
continuous
 10
152.22144661706008
 20
124.77852161067224
 11
152.2214466170596
 21
125.42703845341603
  0
LINE
  8
2
 62
     4
  6
continuous
 10
152.27977995039339
 20
124.6323281320339
 11
152.27977995039384
 21
125.42703845341603
  0
LINE
  8
2
 62
     4
  6
continuous
 10
152.55477995039331
 20
124.77852161067224
 11
152.55477995039368
 21
125.42703845341603
  0
LINE
  8
2
 62
     4
  6
continuous
 10
152.49644661706003
 20
124.6323281320339
 11
152.49644661706154
 21
125.42703845341603
  0
LINE
  8
2
 62
     3
  6
continuous
 10
140.13811328372631
 20
124.59370512008252
 11
151.638113283726
 21
124.59370512008252
  0
LINE
  8
2
 62
     2
  6
continuous
 10
151.55477995039291
 20
125.42703845341623
 11
151.55477995039237
 21
127.0937051200824
  0
LINE
  8
2
 62
     2
  6
continuous
 10
151.55477995039283
 20
125.42703845341589
 11
172.01311328372685
 21
125.42703845341596
  0
LINE
  8
2
 62
     2
  6
continuous
 10
151.55477995039274
 20
125.71870512008275
 11
172.10061328372689
 21
125.71870512008277
  0
LINE
  8
2
 62
     2
  6
line_font21
 10
151.55477995039237
 20
126.88537178674929
 11
172.4506132837262
 21
126.88537178674926
  0
LINE
  8
2
 62
     4
  6
continuous
 10
166.22144661706
 20
125.71870512008213
 11
166.22144661706
 21
125.75186836767655
  0
LINE
  8
2
 62
     4
  6
continuous
 10
165.55477995039331
 20
125.71870512008213
 11
165.55477995039331
 21
125.75186836767655
  0
LINE
  8
2
 62
     4
  6
line_font21
 10
165.72144661705957
 20
125.42703845341603
 11
165.72144661706002
 21
125.71870512008213
  0
LINE
  8
2
 62
     4
  6
line_font21
 10
165.77977995039382
 20
125.42703845341603
 11
165.77977995039333
 21
125.71870512008213
  0
LINE
  8
2
 62
     4
  6
line_font21
 10
165.99644661706151
 20
125.42703845341603
 11
165.99644661706
 21
125.71870512008213
  0
LINE
  8
2
 62
     4
  6
line_font21
 10
166.05477995039362
 20
125.42703845341603
 11
166.05477995039328
 21
125.71870512008213
  0
LINE
  8
2
 62
     4
  6
continuous
 10
165.72144661706002
 20
124.77852161067224
 11
165.72144661705957
 21
125.42703845341603
  0
LINE
  8
2
 62
     4
  6
continuous
 10
165.77977995039333
 20
124.6323281320339
 11
165.77977995039382
 21
125.42703845341603
  0
LINE
  8
2
 62
     4
  6
continuous
 10
166.05477995039328
 20
124.77852161067224
 11
166.05477995039362
 21
125.42703845341603
  0
LINE
  8
2
 62
     4
  6
continuous
 10
165.99644661706
 20
124.6323281320339
 11
165.99644661706151
 21
125.42703845341603
  0
LINE
  8
2
 62
     3
  6
continuous
 10
153.13811328372611
 20
124.59370512008255
 11
165.13811328372589
 21
124.59370512008236
  0
LINE
  8
2
 62
     3
  6
continuous
 10
166.63811328372614
 20
124.59370512008259
 11
172.63811328372543
 21
124.59370512008252
  0
LINE
  8
2
 62
     4
  6
continuous
 10
194.88811328372688
 20
125.71870512008206
 11
194.88811328372688
 21
125.75186836767648
  0
LINE
  8
2
 62
     4
  6
continuous
 10
194.22144661706014
 20
125.71870512008206
 11
194.22144661706014
 21
125.75186836767648
  0
LINE
  8
2
 62
     4
  6
line_font21
 10
194.38811328372643
 20
125.42703845341596
 11
194.38811328372688
 21
125.71870512008206
  0
LINE
  8
2
 62
     4
  6
line_font21
 10
194.44644661706073
 20
125.42703845341596
 11
194.44644661706019
 21
125.71870512008206
  0
LINE
  8
2
 62
     4
  6
line_font21
 10
194.66311328372834
 20
125.42703845341596
 11
194.66311328372689
 21
125.71870512008206
  0
LINE
  8
2
 62
     4
  6
line_font21
 10
194.72144661706051
 20
125.42703845341596
 11
194.72144661706014
 21
125.71870512008206
  0
LINE
  8
2
 62
     4
  6
continuous
 10
194.38811328372688
 20
124.77852161067221
 11
194.38811328372643
 21
125.42703845341596
  0
LINE
  8
2
 62
     4
  6
continuous
 10
194.44644661706019
 20
124.63232813203383
 11
194.44644661706073
 21
125.42703845341596
  0
LINE
  8
2
 62
     4
  6
continuous
 10
194.72144661706014
 20
124.77852161067221
 11
194.72144661706051
 21
125.42703845341596
  0
LINE
  8
2
 62
     4
  6
continuous
 10
194.66311328372689
 20
124.63232813203383
 11
194.66311328372834
 21
125.42703845341596
  0
LINE
  8
2
 62
     7
  6
line_font22
 10
190.13811328372665
 20
126.11037178674931
 11
190.13811328372665
 21
128.55203845341595
  0
LINE
  8
2
 62
     4
  6
continuous
 10
190.34644661706
 20
127.5841735969442
 11
190.34644661705846
 21
127.46870512008161
  0
LINE
  8
2
 62
     4
  6
continuous
 10
189.92977995039331
 20
127.5841735969442
 11
189.92977995039627
 21
127.46870512008161
  0
LINE
  8
2
 62
     4
  6
continuous
 10
190.27977995039498
 20
127.46870512008152
 11
190.27977995039322
 21
127.69135273431166
  0
LINE
  8
2
 62
     4
  6
continuous
 10
189.99644661705992
 20
127.69135289325739
 11
189.99644661705327
 21
127.46870512008152
  0
LINE
  8
2
 62
     4
  6
line_font21
 10
190.55477995039331
 20
126.80203845341596
 11
189.72144661706
 21
126.80203845341596
  0
LINE
  8
2
 62
     4
  6
line_font21
 10
190.55477995039331
 20
126.80203845341596
 11
190.55477995039331
 21
126.88537178674929
  0
LINE
  8
2
 62
     4
  6
line_font21
 10
189.72144661706
 20
126.80203845341596
 11
189.72144661706
 21
126.88537178674929
  0
LINE
  8
2
 62
     4
  6
line_font21
 10
190.51311328372657
 20
126.80203845341596
 11
190.51311328372657
 21
126.71392588490156
  0
LINE
  8
2
 62
     4
  6
line_font21
 10
189.76311328372657
 20
126.80203845341596
 11
189.76311328372657
 21
126.71392588490156
  0
LINE
  8
2
 62
     4
  6
line_font21
 10
190.34644661705664
 20
127.46870512008152
 11
190.34644661706
 21
126.88537178674929
  0
LINE
  8
2
 62
     4
  6
line_font21
 10
190.27977995039322
 20
126.88537178674929
 11
190.27977995039299
 21
127.46870512008152
  0
LINE
  8
2
 62
     4
  6
line_font21
 10
189.99644661706259
 20
127.46870512008152
 11
189.99644661705992
 21
126.88537178674929
  0
LINE
  8
2
 62
     4
  6
line_font21
 10
189.92977995039331
 20
127.46870512008152
 11
189.92977995039331
 21
126.88537178674929
  0
LINE
  8
2
 62
     3
  6
continuous
 10
195.30477995039303
 20
124.59370512008243
 11
206.80477995039317
 21
124.59370512008248
  0
LINE
  8
2
 62
     2
  6
continuous
 10
195.38811328372793
 20
125.42703845341578
 11
195.38811328372756
 21
127.09370512008195
  0
LINE
  8
2
 62
     2
  6
continuous
 10
173.67977995039337
 20
125.42703845341596
 11
195.38811328372901
 21
125.42703845341589
  0
LINE
  8
2
 62
     2
  6
continuous
 10
173.7672799503934
 20
125.71870512008277
 11
195.38811328372893
 21
125.71870512008277
  0
LINE
  8
2
 62
     2
  6
line_font21
 10
174.11727995039362
 20
126.88537178674926
 11
195.3881132837287
 21
126.88537178674922
  0
LINE
  8
2
 62
     4
  6
continuous
 10
181.38811328372688
 20
125.71870512008209
 11
181.38811328372688
 21
125.75186836767651
  0
LINE
  8
2
 62
     4
  6
continuous
 10
180.72144661706022
 20
125.71870512008209
 11
180.72144661706022
 21
125.75186836767651
  0
LINE
  8
2
 62
     4
  6
line_font21
 10
180.88811328372645
 20
125.427038453416
 11
180.88811328372691
 21
125.71870512008209
  0
LINE
  8
2
 62
     4
  6
line_font21
 10
180.94644661706076
 20
125.427038453416
 11
180.94644661706025
 21
125.71870512008209
  0
LINE
  8
2
 62
     4
  6
line_font21
 10
181.16311328372842
 20
125.427038453416
 11
181.16311328372689
 21
125.71870512008209
  0
LINE
  8
2
 62
     4
  6
line_font21
 10
181.22144661706051
 20
125.427038453416
 11
181.22144661706022
 21
125.71870512008209
  0
LINE
  8
2
 62
     4
  6
continuous
 10
180.88811328372691
 20
124.77852161067221
 11
180.88811328372645
 21
125.427038453416
  0
LINE
  8
2
 62
     4
  6
continuous
 10
180.94644661706025
 20
124.63232813203388
 11
180.94644661706076
 21
125.427038453416
  0
LINE
  8
2
 62
     4
  6
continuous
 10
181.22144661706022
 20
124.77852161067221
 11
181.22144661706051
 21
125.427038453416
  0
LINE
  8
2
 62
     4
  6
continuous
 10
181.16311328372689
 20
124.63232813203388
 11
181.16311328372842
 21
125.427038453416
  0
LINE
  8
2
 62
     3
  6
continuous
 10
181.80477995039294
 20
124.59370512008248
 11
193.80477995039286
 21
124.59370512008275
  0
LINE
  8
2
 62
     3
  6
continuous
 10
174.30477995039212
 20
124.59370512008252
 11
180.3047799503928
 21
124.5937051200827
  0
LINE
  8
2
 62
     4
  6
continuous
 10
119.88811328372688
 20
125.71870512008157
 11
119.88811328372688
 21
125.75186836767602
  0
LINE
  8
2
 62
     4
  6
continuous
 10
119.22144661706018
 20
125.71870512008157
 11
119.22144661706018
 21
125.75186836767602
  0
LINE
  8
2
 62
     4
  6
line_font21
 10
119.38811328372645
 20
125.42703845341546
 11
119.38811328372691
 21
125.71870512008157
  0
LINE
  8
2
 62
     4
  6
line_font21
 10
119.44644661706072
 20
125.42703845341546
 11
119.44644661706025
 21
125.71870512008157
  0
LINE
  8
2
 62
     4
  6
line_font21
 10
119.66311328372838
 20
125.42703845341546
 11
119.6631132837269
 21
125.71870512008157
  0
LINE
  8
2
 62
     4
  6
line_font21
 10
119.72144661706051
 20
125.42703845341546
 11
119.72144661706018
 21
125.71870512008157
  0
LINE
  8
2
 62
     4
  6
continuous
 10
119.38811328372691
 20
124.77852161067167
 11
119.38811328372645
 21
125.42703845341546
  0
LINE
  8
2
 62
     4
  6
continuous
 10
119.44644661706025
 20
124.63232813203334
 11
119.44644661706072
 21
125.42703845341546
  0
LINE
  8
2
 62
     4
  6
continuous
 10
119.72144661706018
 20
124.77852161067167
 11
119.72144661706051
 21
125.42703845341546
  0
LINE
  8
2
 62
     4
  6
continuous
 10
119.6631132837269
 20
124.63232813203334
 11
119.66311328372838
 21
125.42703845341546
  0
LINE
  8
2
 62
     3
  6
line_font21
 10
118.80477995039283
 20
124.59370512008202
 11
120.30477995039298
 21
124.59370512008202
  0
LINE
  8
2
 62
     7
  6
line_font22
 10
115.13811328372664
 20
126.11037178674883
 11
115.13811328372664
 21
128.55203845341546
  0
LINE
  8
2
 62
     4
  6
continuous
 10
115.34644661705997
 20
127.5841735969437
 11
115.34644661705848
 21
127.46870512008107
  0
LINE
  8
2
 62
     4
  6
continuous
 10
114.92977995039331
 20
127.5841735969437
 11
114.92977995039632
 21
127.46870512008107
  0
LINE
  8
2
 62
     4
  6
continuous
 10
115.27977995039501
 20
127.46870512008104
 11
115.27977995039325
 21
127.69135273431118
  0
LINE
  8
2
 62
     4
  6
continuous
 10
114.99644661705995
 20
127.69135289325689
 11
114.99644661705327
 21
127.46870512008104
  0
LINE
  8
2
 62
     4
  6
line_font21
 10
115.55477995039331
 20
126.80203845341546
 11
114.72144661705997
 21
126.80203845341546
  0
LINE
  8
2
 62
     4
  6
line_font21
 10
115.55477995039331
 20
126.80203845341546
 11
115.55477995039331
 21
126.88537178674881
  0
LINE
  8
2
 62
     4
  6
line_font21
 10
114.72144661705997
 20
126.80203845341546
 11
114.72144661705997
 21
126.88537178674881
  0
LINE
  8
2
 62
     4
  6
line_font21
 10
115.5131132837266
 20
126.80203845341546
 11
115.5131132837266
 21
126.71392588490107
  0
LINE
  8
2
 62
     4
  6
line_font21
 10
114.7631132837266
 20
126.80203845341546
 11
114.7631132837266
 21
126.71392588490107
  0
LINE
  8
2
 62
     4
  6
line_font21
 10
115.3464466170567
 20
127.46870512008104
 11
115.34644661705997
 21
126.88537178674881
  0
LINE
  8
2
 62
     4
  6
line_font21
 10
115.27977995039325
 20
126.88537178674881
 11
115.27977995039299
 21
127.46870512008104
  0
LINE
  8
2
 62
     4
  6
line_font21
 10
114.99644661706256
 20
127.46870512008104
 11
114.99644661705995
 21
126.88537178674881
  0
LINE
  8
2
 62
     4
  6
line_font21
 10
114.92977995039334
 20
127.46870512008104
 11
114.92977995039331
 21
126.88537178674881
  0
LINE
  8
2
 62
     2
  6
continuous
 10
120.38811328372675
 20
125.42703845341528
 11
120.38811328372637
 21
127.09370512008141
  0
LINE
  8
2
 62
     2
  6
continuous
 10
112.13736492982412
 20
125.42703845341532
 11
120.38811328372675
 21
125.42703845341555
  0
LINE
  8
2
 62
     2
  6
continuous
 10
111.59986492982422
 20
125.71870512008225
 11
120.3881132837267
 21
125.71870512008229
  0
LINE
  8
2
 62
     2
  6
line_font21
 10
120.38811328372643
 20
126.88537178674872
 11
111.94986492982419
 21
126.88537178674881
  0
LINE
  8
2
 62
     3
  6
continuous
 10
112.13736492982487
 20
124.59370512008252
 11
118.8047799503928
 21
124.59370512008243
  0
LINE
  8
2
 62
     3
  6
continuous
 10
120.30477995039303
 20
124.59370512008243
 11
131.80477995039314
 21
124.59370512008232
  0
LINE
  8
2
 62
     4
  6
continuous
 10
227.72144661706022
 20
125.71870512008206
 11
227.72144661706022
 21
125.75186836767644
  0
LINE
  8
2
 62
     4
  6
continuous
 10
227.05477995039354
 20
125.71870512008206
 11
227.05477995039354
 21
125.75186836767644
  0
LINE
  8
2
 62
     4
  6
line_font21
 10
227.22144661705977
 20
125.42703845341592
 11
227.22144661706022
 21
125.71870512008206
  0
LINE
  8
2
 62
     4
  6
line_font21
 10
227.27977995039407
 20
125.42703845341592
 11
227.27977995039362
 21
125.71870512008206
  0
LINE
  8
2
 62
     4
  6
line_font21
 10
227.49644661706174
 20
125.42703845341592
 11
227.49644661706023
 21
125.71870512008206
  0
LINE
  8
2
 62
     4
  6
line_font21
 10
227.55477995039385
 20
125.42703845341592
 11
227.55477995039354
 21
125.71870512008206
  0
LINE
  8
2
 62
     4
  6
continuous
 10
227.22144661706022
 20
124.77852161067213
 11
227.22144661705977
 21
125.42703845341592
  0
LINE
  8
2
 62
     4
  6
continuous
 10
227.27977995039362
 20
124.63232813203383
 11
227.27977995039407
 21
125.42703845341592
  0
LINE
  8
2
 62
     4
  6
continuous
 10
227.55477995039354
 20
124.77852161067213
 11
227.55477995039385
 21
125.42703845341592
  0
LINE
  8
2
 62
     4
  6
continuous
 10
227.49644661706023
 20
124.63232813203383
 11
227.49644661706174
 21
125.42703845341592
  0
LINE
  8
2
 62
     7
  6
line_font22
 10
231.80477995039499
 20
126.1103717867492
 11
231.80477995039499
 21
128.55203845341583
  0
LINE
  8
2
 62
     4
  6
continuous
 10
231.59644661706164
 20
127.58417359694408
 11
231.59644661706318
 21
127.46870512008145
  0
LINE
  8
2
 62
     4
  6
continuous
 10
232.01311328372833
 20
127.58417359694408
 11
232.01311328372529
 21
127.46870512008145
  0
LINE
  8
2
 62
     4
  6
continuous
 10
231.66311328372666
 20
127.46870512008141
 11
231.66311328372848
 21
127.69135273431155
  0
LINE
  8
2
 62
     4
  6
continuous
 10
231.94644661706172
 20
127.69135289325727
 11
231.94644661706846
 21
127.46870512008141
  0
LINE
  8
2
 62
     4
  6
line_font21
 10
231.38811328372833
 20
126.80203845341585
 11
232.22144661706164
 21
126.80203845341585
  0
LINE
  8
2
 62
     4
  6
line_font21
 10
231.38811328372833
 20
126.80203845341585
 11
231.38811328372833
 21
126.88537178674918
  0
LINE
  8
2
 62
     4
  6
line_font21
 10
232.22144661706164
 20
126.80203845341585
 11
232.22144661706164
 21
126.88537178674918
  0
LINE
  8
2
 62
     4
  6
line_font21
 10
231.42977995039513
 20
126.80203845341585
 11
231.42977995039513
 21
126.71392588490144
  0
LINE
  8
2
 62
     4
  6
line_font21
 10
232.17977995039513
 20
126.80203845341585
 11
232.17977995039513
 21
126.71392588490144
  0
LINE
  8
2
 62
     4
  6
line_font21
 10
231.596446617065
 20
127.46870512008141
 11
231.59644661706164
 21
126.88537178674918
  0
LINE
  8
2
 62
     4
  6
line_font21
 10
231.66311328372848
 20
126.88537178674918
 11
231.66311328372865
 21
127.46870512008141
  0
LINE
  8
2
 62
     4
  6
line_font21
 10
231.94644661705905
 20
127.46870512008141
 11
231.94644661706172
 21
126.88537178674918
  0
LINE
  8
2
 62
     4
  6
line_font21
 10
232.01311328372833
 20
127.46870512008141
 11
232.01311328372833
 21
126.88537178674918
  0
LINE
  8
2
 62
     2
  6
continuous
 10
226.55477995039044
 20
125.42703845341612
 11
226.55477995038999
 21
127.09370512008232
  0
LINE
  8
2
 62
     2
  6
continuous
 10
234.19692287679189
 20
125.42703845341596
 11
226.55477995038976
 21
125.42703845341634
  0
LINE
  8
2
 62
     2
  6
continuous
 10
234.28442287679198
 20
125.71870512008275
 11
226.55477995038967
 21
125.71870512008275
  0
LINE
  8
2
 62
     2
  6
line_font21
 10
234.63442287679189
 20
126.88537178674922
 11
226.55477995038939
 21
126.8853717867491
  0
LINE
  8
2
 62
     3
  6
continuous
 10
215.13811328372634
 20
124.59370512008252
 11
226.63811328372611
 21
124.59370512008263
  0
LINE
  8
2
 62
     3
  6
continuous
 10
228.13811328372628
 20
124.5937051200824
 11
234.82192287679158
 21
124.59370512008252
  0
LINE
  8
2
 62
     7
  6
line_font22
 10
205.62977995038761
 20
123.76037178674869
 11
209.00477995038753
 21
123.76037178674869
  0
LINE
  8
2
 62
     4
  6
continuous
 10
206.50477995038761
 20
124.40203845341537
 11
206.50477995038761
 21
123.118705120082
  0
LINE
  8
2
 62
     4
  6
continuous
 10
206.04644661705427
 20
124.22946888046525
 11
206.04644661705427
 21
123.29127469303212
  0
LINE
  8
2
 62
     4
  6
continuous
 10
206.13672439483202
 20
124.38583457837076
 11
206.50477995038761
 21
124.38583457837076
  0
LINE
  8
2
 62
     4
  6
continuous
 10
206.13672439483202
 20
124.07310318255975
 11
206.50477995038761
 21
124.07310318255975
  0
LINE
  8
2
 62
     4
  6
continuous
 10
206.13672439483202
 20
123.44764039093764
 11
206.50477995038761
 21
123.44764039093764
  0
LINE
  8
2
 62
     4
  6
continuous
 10
206.13672439483202
 20
123.13490899512661
 11
206.50477995038761
 21
123.13490899512661
  0
LINE
  8
2
 62
     4
  6
continuous
 10
206.67144661705427
 20
124.46870512008202
 11
206.67144661705427
 21
123.05203845341535
  0
LINE
  8
2
 62
     4
  6
continuous
 10
206.50477995038761
 20
124.40203845341537
 11
206.67144661705427
 21
124.40203845341537
  0
LINE
  8
2
 62
     4
  6
continuous
 10
206.50477995038761
 20
123.118705120082
 11
206.67144661705427
 21
123.118705120082
  0
LINE
  8
2
 62
     4
  6
continuous
 10
206.50477995038761
 20
123.82287178674869
 11
206.67144661705427
 21
123.75876922264611
  0
LINE
  8
2
 62
     4
  6
continuous
 10
206.50477995038761
 20
123.73953845341535
 11
206.67144661705427
 21
123.67543588931281
  0
LINE
  8
2
 62
     4
  6
continuous
 10
206.67144661705427
 20
124.46870512008202
 11
206.80477995038757
 21
124.46870512008202
  0
LINE
  8
2
 62
     4
  6
continuous
 10
206.67144661705427
 20
123.05203845341535
 11
206.80477995038757
 21
123.05203845341535
  0
LINE
  8
2
 62
     4
  6
continuous
 10
208.58811328372087
 20
123.98953845341535
 11
208.58811328372087
 21
123.53120512008202
  0
LINE
  8
2
 62
     4
  6
continuous
 10
208.48394661705419
 20
124.09370512008202
 11
208.48394661705419
 21
123.42703845341535
  0
LINE
  8
2
 62
     4
  6
continuous
 10
208.48394661705419
 20
123.42703845341535
 11
208.58811328372087
 21
123.53120512008202
  0
LINE
  8
2
 62
     4
  6
continuous
 10
208.48394661705419
 20
124.09370512008202
 11
208.58811328372087
 21
123.98953845341535
  0
LINE
  8
2
 62
     7
  6
line_font22
 10
216.31311328372516
 20
123.76037178674869
 11
212.93811328372516
 21
123.76037178674869
  0
LINE
  8
2
 62
     4
  6
continuous
 10
215.4381132837251
 20
124.40203845341537
 11
215.4381132837251
 21
123.118705120082
  0
LINE
  8
2
 62
     4
  6
continuous
 10
215.8964466170585
 20
124.22946888046525
 11
215.8964466170585
 21
123.29127469303212
  0
LINE
  8
2
 62
     4
  6
continuous
 10
215.80616883928076
 20
124.38583457837076
 11
215.4381132837251
 21
124.38583457837076
  0
LINE
  8
2
 62
     4
  6
continuous
 10
215.80616883928076
 20
124.07310318255975
 11
215.4381132837251
 21
124.07310318255975
  0
LINE
  8
2
 62
     4
  6
continuous
 10
215.80616883928076
 20
123.44764039093764
 11
215.4381132837251
 21
123.44764039093764
  0
LINE
  8
2
 62
     4
  6
continuous
 10
215.80616883928076
 20
123.13490899512661
 11
215.4381132837251
 21
123.13490899512661
  0
LINE
  8
2
 62
     4
  6
continuous
 10
215.2714466170585
 20
124.46870512008202
 11
215.2714466170585
 21
123.05203845341535
  0
LINE
  8
2
 62
     4
  6
continuous
 10
215.4381132837251
 20
124.40203845341537
 11
215.2714466170585
 21
124.40203845341537
  0
LINE
  8
2
 62
     4
  6
continuous
 10
215.4381132837251
 20
123.118705120082
 11
215.2714466170585
 21
123.118705120082
  0
LINE
  8
2
 62
     4
  6
continuous
 10
215.4381132837251
 20
123.82287178674869
 11
215.2714466170585
 21
123.75876922264611
  0
LINE
  8
2
 62
     4
  6
continuous
 10
215.4381132837251
 20
123.73953845341535
 11
215.2714466170585
 21
123.67543588931281
  0
LINE
  8
2
 62
     4
  6
continuous
 10
215.2714466170585
 20
124.46870512008202
 11
215.13811328372515
 21
124.46870512008202
  0
LINE
  8
2
 62
     4
  6
continuous
 10
215.2714466170585
 20
123.05203845341535
 11
215.13811328372515
 21
123.05203845341535
  0
LINE
  8
2
 62
     4
  6
continuous
 10
213.35477995039184
 20
123.98953845341535
 11
213.35477995039184
 21
123.53120512008202
  0
LINE
  8
2
 62
     4
  6
continuous
 10
213.4589466170585
 20
124.09370512008202
 11
213.4589466170585
 21
123.42703845341535
  0
LINE
  8
2
 62
     4
  6
continuous
 10
213.4589466170585
 20
123.42703845341535
 11
213.35477995039184
 21
123.53120512008202
  0
LINE
  8
2
 62
     4
  6
continuous
 10
213.4589466170585
 20
124.09370512008202
 11
213.35477995039184
 21
123.98953845341535
  0
LINE
  8
2
 62
     7
  6
continuous
 10
208.60858157669611
 20
120.56851994041995
 11
208.87640974739887
 21
120.88770512505285
  0
LINE
  8
2
 62
     7
  6
continuous
 10
208.92977995039007
 20
126.67698937562182
 11
208.92977995039007
 21
127.09370512008236
  0
LINE
  8
2
 62
     7
  6
continuous
 10
202.92977995039007
 20
127.09370512008236
 11
202.92977995039007
 21
126.67703845341569
  0
LINE
  8
2
 62
     2
  6
continuous
 10
207.58931341928613
 20
124.38537178674903
 11
208.07852995039005
 21
124.38537178674903
  0
LINE
  8
2
 62
     2
  6
continuous
 10
208.07852995039005
 20
124.38537178674903
 11
208.07852995039005
 21
123.13537178674903
  0
LINE
  8
2
 62
     2
  6
continuous
 10
207.58931341928613
 20
123.13537178674903
 11
208.07852995039005
 21
123.13537178674903
  0
LINE
  8
2
 62
     2
  6
continuous
 10
207.57830099883634
 20
123.76037178674865
 11
207.53686328372339
 21
123.71893407163569
  0
LINE
  8
2
 62
     2
  6
continuous
 10
207.57830099883634
 20
123.76037178674865
 11
207.53686328372339
 21
123.80180950186164
  0
LINE
  8
2
 62
     7
  6
continuous
 10
205.01311328372338
 20
126.70203845341567
 11
205.03811328372342
 21
126.67703845341569
  0
LINE
  8
2
 62
     7
  6
continuous
 10
205.01311328372333
 20
126.70203845341567
 11
204.98811328372338
 21
126.67703845341569
  0
LINE
  8
2
 62
     7
  6
line_font22
 10
205.01311328372361
 20
125.50203845341571
 11
205.01311328372361
 21
128.87703845341571
  0
LINE
  8
2
 62
     4
  6
continuous
 10
204.37144661705696
 20
126.37703845341571
 11
205.65477995039026
 21
126.37703845341571
  0
LINE
  8
2
 62
     4
  6
continuous
 10
204.54401619000703
 20
125.91870512008236
 11
205.48221037744014
 21
125.91870512008236
  0
LINE
  8
2
 62
     4
  6
continuous
 10
204.3876504921015
 20
126.00898289786016
 11
204.3876504921015
 21
126.37703845341571
  0
LINE
  8
2
 62
     4
  6
continuous
 10
204.70038188791253
 20
126.00898289786016
 11
204.70038188791253
 21
126.37703845341571
  0
LINE
  8
2
 62
     4
  6
continuous
 10
205.32584467953464
 20
126.00898289786016
 11
205.32584467953464
 21
126.37703845341571
  0
LINE
  8
2
 62
     4
  6
continuous
 10
205.63857607534567
 20
126.00898289786016
 11
205.63857607534567
 21
126.37703845341571
  0
LINE
  8
2
 62
     4
  6
continuous
 10
204.3047799503903
 20
126.54370512008236
 11
205.72144661705696
 21
126.54370512008236
  0
LINE
  8
2
 62
     4
  6
continuous
 10
204.37144661705696
 20
126.37703845341571
 11
204.37144661705696
 21
126.54370512008236
  0
LINE
  8
2
 62
     4
  6
continuous
 10
205.65477995039026
 20
126.37703845341571
 11
205.65477995039026
 21
126.54370512008236
  0
LINE
  8
2
 62
     4
  6
continuous
 10
204.95061328372361
 20
126.37703845341571
 11
205.01471584782615
 21
126.54370512008236
  0
LINE
  8
2
 62
     4
  6
continuous
 10
205.03394661705696
 20
126.37703845341571
 11
205.0980491811595
 21
126.54370512008236
  0
LINE
  8
2
 62
     4
  6
continuous
 10
204.3047799503903
 20
126.54370512008236
 11
204.3047799503903
 21
126.67703845341569
  0
LINE
  8
2
 62
     4
  6
continuous
 10
205.72144661705696
 20
126.54370512008236
 11
205.72144661705696
 21
126.67703845341569
  0
LINE
  8
2
 62
     4
  6
continuous
 10
204.78394661705696
 20
128.46037178674902
 11
205.2422799503903
 21
128.46037178674902
  0
LINE
  8
2
 62
     4
  6
continuous
 10
205.34644661705696
 20
128.35620512008236
 11
205.34644661705696
 21
128.09370512008235
  0
LINE
  8
2
 62
     4
  6
continuous
 10
204.6797799503903
 20
128.35620512008236
 11
204.6797799503903
 21
128.09370512008235
  0
LINE
  8
2
 62
     4
  6
continuous
 10
205.2422799503903
 20
128.46037178674902
 11
205.2422799503903
 21
128.09370512008235
  0
LINE
  8
2
 62
     4
  6
continuous
 10
204.78394661705696
 20
128.46037178674902
 11
204.78394661705696
 21
128.09370512008235
  0
LINE
  8
2
 62
     4
  6
continuous
 10
204.6797799503903
 20
128.35620512008236
 11
205.34644661705696
 21
128.35620512008236
  0
LINE
  8
2
 62
     4
  6
continuous
 10
205.34644661705696
 20
128.35620512008236
 11
205.2422799503903
 21
128.46037178674902
  0
LINE
  8
2
 62
     4
  6
continuous
 10
204.6797799503903
 20
128.35620512008236
 11
204.78394661705696
 21
128.46037178674902
  0
LINE
  8
2
 62
     7
  6
continuous
 10
202.92977995038908
 20
126.67703845341566
 11
207.93794140082167
 21
126.67703845341569
  0
LINE
  8
2
 62
     4
  6
continuous
 10
208.48394661705419
 20
123.42703845341535
 11
208.07852995039059
 21
123.42703845341464
  0
LINE
  8
2
 62
     4
  6
continuous
 10
208.48394661705419
 20
124.09370512008202
 11
208.07852995039059
 21
124.09370512007709
  0
LINE
  8
2
 62
     4
  6
continuous
 10
208.58811328372087
 20
123.53120512008202
 11
208.07852995039059
 21
123.53120512008702
  0
LINE
  8
2
 62
     4
  6
continuous
 10
208.58811328372087
 20
123.98953845341535
 11
208.07852995039059
 21
123.98953845341634
  0
LINE
  8
2
 62
     7
  6
continuous
 10
213.33431165741706
 20
120.56851994041968
 11
213.06648348671428
 21
120.88770512505258
  0
LINE
  8
2
 62
     7
  6
continuous
 10
213.0131132837231
 20
126.67698937562155
 11
213.0131132837231
 21
127.09370512008206
  0
LINE
  8
2
 62
     7
  6
continuous
 10
219.0131132837231
 20
126.67703845341539
 11
214.00495183329147
 21
126.67703845341539
  0
LINE
  8
2
 62
     7
  6
continuous
 10
219.0131132837231
 20
127.09370512008206
 11
219.0131132837231
 21
126.67703845341539
  0
LINE
  8
2
 62
     2
  6
continuous
 10
213.86436328372309
 20
124.38537178674872
 11
213.86436328372309
 21
123.13537178674872
  0
LINE
  8
2
 62
     2
  6
continuous
 10
214.36459223527675
 20
123.76037178674838
 11
214.40602995038978
 21
123.71893407163543
  0
LINE
  8
2
 62
     2
  6
continuous
 10
214.36459223527675
 20
123.76037178674838
 11
214.40602995038978
 21
123.80180950186138
  0
LINE
  8
2
 62
     7
  6
line_font22
 10
216.92977995038953
 20
125.50203845341539
 11
216.92977995038953
 21
128.87703845341539
  0
LINE
  8
2
 62
     7
  6
continuous
 10
216.92977995039013
 20
126.70203845341537
 11
216.95477995039016
 21
126.67703845341539
  0
LINE
  8
2
 62
     7
  6
continuous
 10
216.92977995039013
 20
126.70203845341537
 11
216.90477995039012
 21
126.67703845341539
  0
LINE
  8
2
 62
     4
  6
continuous
 10
216.2881132837237
 20
126.37703845341537
 11
217.57144661705701
 21
126.37703845341537
  0
LINE
  8
2
 62
     4
  6
continuous
 10
216.46068285667383
 20
125.91870512008207
 11
217.39887704410697
 21
125.91870512008207
  0
LINE
  8
2
 62
     4
  6
continuous
 10
216.30431715876824
 20
126.00898289785985
 11
216.30431715876824
 21
126.37703845341537
  0
LINE
  8
2
 62
     4
  6
continuous
 10
216.61704855457936
 20
126.00898289785985
 11
216.61704855457936
 21
126.37703845341537
  0
LINE
  8
2
 62
     4
  6
continuous
 10
217.24251134620138
 20
126.00898289785985
 11
217.24251134620138
 21
126.37703845341537
  0
LINE
  8
2
 62
     4
  6
continuous
 10
217.55524274201247
 20
126.00898289785985
 11
217.55524274201247
 21
126.37703845341537
  0
LINE
  8
2
 62
     4
  6
continuous
 10
216.22144661705704
 20
126.54370512008207
 11
217.6381132837237
 21
126.54370512008207
  0
LINE
  8
2
 62
     4
  6
continuous
 10
216.2881132837237
 20
126.37703845341537
 11
216.2881132837237
 21
126.54370512008207
  0
LINE
  8
2
 62
     4
  6
continuous
 10
217.57144661705701
 20
126.37703845341537
 11
217.57144661705701
 21
126.54370512008207
  0
LINE
  8
2
 62
     4
  6
continuous
 10
216.86727995039035
 20
126.37703845341537
 11
216.93138251449298
 21
126.54370512008207
  0
LINE
  8
2
 62
     4
  6
continuous
 10
216.9506132837237
 20
126.37703845341537
 11
217.01471584782632
 21
126.54370512008207
  0
LINE
  8
2
 62
     4
  6
continuous
 10
216.22144661705704
 20
126.54370512008207
 11
216.22144661705704
 21
126.67703845341539
  0
LINE
  8
2
 62
     4
  6
continuous
 10
217.6381132837237
 20
126.54370512008207
 11
217.6381132837237
 21
126.67703845341539
  0
LINE
  8
2
 62
     4
  6
continuous
 10
216.7006132837237
 20
128.46037178674868
 11
217.15894661705704
 21
128.46037178674868
  0
LINE
  8
2
 62
     4
  6
continuous
 10
217.2631132837237
 20
128.35620512008202
 11
217.2631132837237
 21
128.09370512008206
  0
LINE
  8
2
 62
     4
  6
continuous
 10
216.59644661705704
 20
128.35620512008202
 11
216.59644661705704
 21
128.09370512008206
  0
LINE
  8
2
 62
     4
  6
continuous
 10
217.15894661705704
 20
128.46037178674868
 11
217.15894661705704
 21
128.09370512008206
  0
LINE
  8
2
 62
     4
  6
continuous
 10
216.7006132837237
 20
128.46037178674868
 11
216.7006132837237
 21
128.09370512008206
  0
LINE
  8
2
 62
     4
  6
continuous
 10
216.59644661705704
 20
128.35620512008202
 11
217.2631132837237
 21
128.35620512008202
  0
LINE
  8
2
 62
     4
  6
continuous
 10
217.2631132837237
 20
128.35620512008202
 11
217.15894661705704
 21
128.46037178674868
  0
LINE
  8
2
 62
     4
  6
continuous
 10
216.59644661705704
 20
128.35620512008202
 11
216.7006132837237
 21
128.46037178674868
  0
LINE
  8
2
 62
     2
  6
continuous
 10
214.35357981482679
 20
124.38537178674929
 11
213.86436328372309
 21
124.38537178674872
  0
LINE
  8
2
 62
     2
  6
continuous
 10
214.35357981482588
 20
123.1353717867444
 11
213.86436328372309
 21
123.13537178674872
  0
LINE
  8
2
 62
     4
  6
continuous
 10
213.4589466170585
 20
123.42703845341535
 11
213.86436328372127
 21
123.42703845341319
  0
LINE
  8
2
 62
     4
  6
continuous
 10
213.4589466170585
 20
124.09370512008202
 11
213.86436328372127
 21
124.0937051200777
  0
LINE
  8
2
 62
     4
  6
continuous
 10
213.35477995039184
 20
123.53120512008202
 11
213.86436328372127
 21
123.53120512008691
  0
LINE
  8
2
 62
     4
  6
continuous
 10
213.35477995039184
 20
123.98953845341535
 11
213.86436328372127
 21
123.98953845341362
  0
LINE
  8
2
 62
     7
  6
continuous
 10
202.92977995038967
 20
127.09370512008263
 11
219.01311328372302
 21
127.09370512008275
  0
LINE
  8
2
 62
     7
  6
continuous
 10
218.8881132837227
 20
130.05203845341572
 11
218.8881132837231
 21
127.09370512008175
  0
LINE
  8
2
 62
     7
  6
continuous
 10
203.05477995039035
 20
130.05203845341603
 11
203.05477995039007
 21
127.09370512008206
  0
LINE
  8
2
 62
     7
  6
continuous
 10
128.05477995039328
 20
130.05203845341603
 11
128.05477995039328
 21
127.09370512008215
  0
LINE
  8
2
 62
     4
  6
continuous
 10
153.13811328372611
 20
104.03120512008223
 11
153.13811328372611
 21
125.42703845341596
  0
LINE
  8
2
 62
     4
  6
continuous
 10
151.63811328372594
 20
104.03120512008223
 11
151.63811328372594
 21
125.42703845341596
  0
LINE
  8
2
 62
     4
  6
continuous
 10
151.73811328372642
 20
104.03120512008223
 11
151.73811328372642
 21
125.42703845341596
  0
LINE
  8
2
 62
     4
  6
continuous
 10
153.03811328372612
 20
104.03120512008223
 11
153.03811328372609
 21
125.42703845341596
  0
LINE
  8
2
 62
     7
  6
line_font22
 10
152.3881132837262
 20
104.03120512008223
 11
152.38811328372617
 21
126.48054515709748
  0
LINE
  8
2
 62
     6
  6
continuous
 10
206.80477995039305
 20
108.76394602973809
 11
206.80477995039317
 21
126.67703845341543
  0
LINE
  8
2
 62
     6
  6
continuous
 10
207.09644661705971
 20
108.76394602973809
 11
207.09644661705983
 21
126.67703845341543
  0
LINE
  8
2
 62
     6
  6
continuous
 10
214.84644661705971
 20
108.76394602973809
 11
214.84644661705968
 21
126.67703845341543
  0
LINE
  8
2
 62
     6
  6
continuous
 10
215.13811328372645
 20
108.76394602973809
 11
215.13811328372634
 21
126.67703845341539
  0
LINE
  8
2
 62
     4
  6
continuous
 10
120.30477995039298
 20
63.343705120082561
 11
120.30477995039303
 21
125.42703845341546
  0
LINE
  8
2
 62
     4
  6
continuous
 10
118.80477995039281
 20
63.343705120082554
 11
118.80477995039281
 21
125.42703845341546
  0
LINE
  8
2
 62
     4
  6
continuous
 10
118.90477995039328
 20
63.343705120082554
 11
118.90477995039329
 21
125.42703845341546
  0
LINE
  8
2
 62
     4
  6
continuous
 10
120.20477995039289
 20
63.343705120082561
 11
120.20477995039298
 21
125.42703845341546
  0
LINE
  8
2
 62
     4
  6
continuous
 10
165.23811328372636
 20
63.343705120082646
 11
165.23811328372636
 21
125.42703845341596
  0
LINE
  8
2
 62
     4
  6
continuous
 10
165.13811328372589
 20
63.343705120082646
 11
165.13811328372589
 21
125.42703845341596
  0
LINE
  8
2
 62
     4
  6
continuous
 10
166.63811328372609
 20
63.343705120082646
 11
166.63811328372614
 21
125.42703845341596
  0
LINE
  8
2
 62
     4
  6
continuous
 10
166.53811328372598
 20
63.343705120082646
 11
166.53811328372606
 21
125.42703845341596
  0
LINE
  8
2
 62
     4
  6
continuous
 10
180.3047799503928
 20
63.343705120082674
 11
180.3047799503928
 21
125.42703845341596
  0
LINE
  8
2
 62
     4
  6
continuous
 10
181.80477995039294
 20
63.343705120082674
 11
181.80477995039294
 21
125.42703845341596
  0
LINE
  8
2
 62
     4
  6
continuous
 10
180.40477995039328
 20
63.343705120082674
 11
180.40477995039328
 21
125.42703845341596
  0
LINE
  8
2
 62
     4
  6
continuous
 10
195.20477995039289
 20
63.343705120082703
 11
195.20477995039295
 21
125.42703845341596
  0
LINE
  8
2
 62
     4
  6
continuous
 10
195.30477995039294
 20
63.343705120082703
 11
195.30477995039303
 21
125.42703845341596
  0
LINE
  8
2
 62
     4
  6
continuous
 10
193.90477995039322
 20
63.343705120082703
 11
193.9047799503933
 21
125.42703845341592
  0
LINE
  8
2
 62
     4
  6
continuous
 10
193.8047799503928
 20
63.343705120082703
 11
193.8047799503928
 21
125.42703845341592
  0
LINE
  8
2
 62
     4
  6
continuous
 10
181.70477995039289
 20
63.343705120082674
 11
181.70477995039295
 21
125.42703845341596
  0
LINE
  8
2
 62
     4
  6
continuous
 10
228.1381132837264
 20
63.343705120082774
 11
228.13811328372628
 21
125.42703845341589
  0
LINE
  8
2
 62
     4
  6
continuous
 10
228.0381132837264
 20
63.343705120082774
 11
228.03811328372629
 21
125.42703845341589
  0
LINE
  8
2
 62
     4
  6
continuous
 10
226.73811328372653
 20
63.343705120082774
 11
226.73811328372665
 21
125.42703845341589
  0
LINE
  8
2
 62
     4
  6
continuous
 10
226.63811328372609
 20
63.343705120082774
 11
226.63811328372611
 21
125.42703845341589
  0
LINE
  8
2
 62
     4
  6
continuous
 10
245.78950096626824
 20
63.343705120082809
 11
245.78950096626829
 21
125.42703845341563
  0
LINE
  8
2
 62
     4
  6
continuous
 10
249.12283429960166
 20
63.343705120082809
 11
249.12283429960169
 21
125.42703845341563
  0
LINE
  8
2
 62
     7
  6
line_font22
 10
119.55477995039303
 20
62.260371786749133
 11
119.55477995039308
 21
127.46870512008104
  0
LINE
  8
2
 62
     7
  6
line_font22
 10
165.88811328372617
 20
62.260371786749133
 11
165.88811328372617
 21
126.48054515709744
  0
LINE
  8
2
 62
     7
  6
line_font22
 10
181.05477995039305
 20
62.260371786749133
 11
181.05477995039305
 21
126.48054515709744
  0
LINE
  8
2
 62
     7
  6
line_font22
 10
194.55477995039303
 20
62.260371786749133
 11
194.55477995039317
 21
126.4805451570974
  0
LINE
  8
2
 62
     7
  6
line_font22
 10
227.38811328372634
 20
62.260371786749133
 11
227.38811328372643
 21
126.48015416433198
  0
LINE
  8
2
 62
     6
  6
continuous
 10
73.598830755567235
 20
44.182437892786027
 11
73.598830755567548
 21
126.67703845341528
  0
LINE
  8
2
 62
     6
  6
continuous
 10
81.932164088901075
 20
44.182437892786027
 11
81.932164088900777
 21
126.67703845341528
  0
LINE
  8
2
 62
     6
  6
continuous
 10
132.09644661705948
 20
53.30203845341525
 11
132.09644661705948
 21
60.802038453415697
  0
LINE
  8
2
 62
     6
  6
continuous
 10
132.09644661705951
 20
61.635371786749133
 11
132.09644661705977
 21
126.67703845341543
  0
LINE
  8
2
 62
     6
  6
continuous
 10
131.80477995039274
 20
44.182437892786027
 11
131.8047799503928
 21
60.802038453415697
  0
LINE
  8
2
 62
     6
  6
continuous
 10
131.8047799503928
 20
61.635371786749133
 11
131.80477995039303
 21
126.67703845341578
  0
LINE
  8
2
 62
     6
  6
continuous
 10
140.13811328372663
 20
44.182437892786027
 11
140.13811328372654
 21
60.802038453415697
  0
LINE
  8
2
 62
     6
  6
continuous
 10
140.13811328372654
 20
61.635371786749133
 11
140.13811328372657
 21
64.427038453415122
  0
LINE
  8
2
 62
     6
  6
continuous
 10
140.13811328372657
 20
54.760371786748664
 11
140.13811328372654
 21
60.802038453415697
  0
LINE
  8
2
 62
     6
  6
continuous
 10
140.13811328372654
 20
61.635371786749133
 11
140.13811328372628
 21
126.67703845341539
  0
LINE
  8
2
 62
     6
  6
continuous
 10
139.84644661705994
 20
53.30203845341525
 11
139.84644661705991
 21
60.802038453415697
  0
LINE
  8
2
 62
     6
  6
continuous
 10
139.84644661705988
 20
61.635371786749133
 11
139.84644661705966
 21
126.67703845341543
  0
LINE
  8
2
 62
     3
  6
continuous
 10
131.38811328372185
 20
59.593705120082582
 11
131.38811328372185
 21
60.260371786749246
  0
LINE
  8
2
 62
     7
  6
line_font22
 10
247.45616763293495
 20
59.593705120082547
 11
247.45616763293509
 21
132.11174783478401
  0
LINE
  8
2
 62
     6
  6
continuous
 10
207.0964466170598
 20
53.052038453415292
 11
207.0964466170598
 21
60.552038453415733
  0
LINE
  8
2
 62
     6
  6
continuous
 10
214.84644661706028
 20
42.927038453415904
 11
214.84644661706022
 21
60.552038453415733
  0
LINE
  8
2
 62
     7
  6
line_font22
 10
77.76549742223412
 20
97.241552217056181
 11
77.765497422234191
 21
133.11639771490326
  0
LINE
  8
2
 62
     7
  6
line_font22
 10
135.97144661705971
 20
32.779012479849328
 11
135.97144661705971
 21
93.731710146666785
  0
LINE
  8
2
 62
     7
  6
line_font28
 10
61.098830755567434
 20
40.246972830376407
 11
61.09883075556742
 21
42.300920152084416
  0
LINE
  8
2
 62
     7
  6
line_font28
 10
61.098830755567391
 20
29.772958275560725
 11
61.09883075556742
 21
37.069492533805999
  0
LINE
  8
2
 62
     7
  6
line_font22
 10
135.97144661705971
 20
97.338521354935324
 11
135.97144661705966
 21
112.00180584897987
  0
LINE
  8
2
 62
     7
  6
line_font22
 10
135.97144661705966
 20
115.13308712417609
 11
135.97144661705966
 21
117.14605365823077
  0
LINE
  8
2
 62
     7
  6
line_font22
 10
210.97144661705971
 20
120.33049565772751
 11
210.97144661705977
 21
131.11869838558803
  0
LINE
  8
2
 62
     7
  6
line_font22
 10
210.97144661705968
 20
40.613045564887727
 11
210.97144661705977
 21
103.79916872778614
  0
LINE
  8
2
 62
     7
  6
line_font22
 10
210.97144661705977
 20
106.97860681066345
 11
210.97144661705977
 21
112.10496365755091
  0
LINE
  8
2
 62
     6
  6
continuous
 10
215.13811328372643
 20
96.742554869775375
 11
215.13811328372643
 21
100.63422153644241
  0
LINE
  8
2
 62
     4
  6
continuous
 10
152.05477995039146
 20
99.0312051200778
 11
152.72144661705835
 21
99.031205120082006
  0
LINE
  8
2
 62
     4
  6
continuous
 10
152.05477995039368
 20
95.697871786746262
 11
152.72144661705914
 21
95.697871786745694
  0
LINE
  8
2
 62
     7
  6
line_font22
 10
77.765497422234063
 20
32.779012479849328
 11
77.76549742223412
 21
67.383724966390261
  0
LINE
  8
2
 62
     7
  6
line_font22
 10
77.76549742223412
 20
70.438659144994915
 11
77.76549742223412
 21
93.928538175776652
  0
LINE
  8
2
 62
     4
  6
continuous
 10
144.22144661705991
 20
62.760371786749062
 11
145.13569467914243
 21
61.571191194501466
  0
LINE
  8
2
 62
     4
  6
continuous
 10
144.22144661705991
 20
62.760371786749062
 11
144.67383505796607
 21
61.330216306203496
  0
LINE
  8
2
 62
     4
  6
continuous
 10
144.22144661705991
 20
62.760371786749062
 11
151.69404771629797
 21
48.438162791143164
  0
LINE
  8
2
 62
     4
  6
continuous
 10
151.69404771629797
 20
48.438162791143164
 11
175.01079903083519
 21
48.438162791143164
  0
LINE
  8
2
 62
     7
  6
line_font22
 10
135.97144661705971
 20
120.69639987323529
 11
135.97144661705971
 21
131.1186983855882
  0
LINE
  8
2
 62
     4
  6
continuous
 10
60.348830755567406
 20
47.093705120082461
 11
55.386543488609703
 21
47.093705120082461
  0
LINE
  8
2
 62
     4
  6
continuous
 10
75.098830755567406
 20
51.260371786749154
 11
55.386543488609703
 21
51.260371786749154
  0
LINE
  8
2
 62
     4
  6
continuous
 10
58.348830755567406
 20
47.093705120082461
 11
50.386543488609703
 21
47.093705120082461
  0
LINE
  8
2
 62
     4
  6
continuous
 10
73.057164088900805
 20
59.593705120082433
 11
50.386543488609703
 21
59.593705120082433
  0
LINE
  8
2
 62
     4
  6
continuous
 10
73.47383075556742
 20
63.343705120082468
 11
50.386543488609703
 21
63.343705120082468
  0
LINE
  8
2
 62
     4
  6
continuous
 10
75.765497422234162
 20
130.42703845341586
 11
50.386543488609703
 21
130.42703845341586
  0
LINE
  8
2
 62
     4
  6
continuous
 10
75.057164088900748
 20
64.927038453415804
 11
75.057164088900748
 21
68.72597591811197
  0
LINE
  8
2
 62
     4
  6
continuous
 10
80.473830755567462
 20
64.927038453415804
 11
80.473830755567462
 21
68.72597591811197
  0
LINE
  8
2
 62
     4
  6
continuous
 10
72.765497422234176
 20
131.00269334558129
 11
72.765497422234176
 21
137.0492713782061
  0
LINE
  8
2
 62
     4
  6
continuous
 10
82.765497422234205
 20
131.00269334558129
 11
82.765497422234205
 21
137.0492713782061
  0
LINE
  8
2
 62
     4
  6
continuous
 10
203.05477995039035
 20
132.05203845341606
 11
203.05477995039035
 21
145.51932022815765
  0
LINE
  8
2
 62
     4
  6
continuous
 10
218.88811328372293
 20
132.05203845341629
 11
218.88811328372293
 21
145.51932022815765
  0
LINE
  8
2
 62
     4
  6
continuous
 10
216.92977995038953
 20
123.50203845341539
 11
216.92977995038953
 21
116.5297027754992
  0
LINE
  8
2
 62
     4
  6
continuous
 10
202.92977995039007
 20
124.67703845341566
 11
202.92977995039007
 21
111.52970277549919
  0
LINE
  8
2
 62
     4
  6
continuous
 10
219.0131132837231
 20
124.67703845341539
 11
219.0131132837231
 21
111.52970277549919
  0
LINE
  8
2
 62
     4
  6
continuous
 10
205.05477995039308
 20
92.550888203109082
 11
201.65475749250595
 21
92.550888203109082
  0
LINE
  8
2
 62
     4
  6
continuous
 10
205.05477995039308
 20
100.88422153644241
 11
201.65475749250595
 21
100.88422153644241
  0
LINE
  8
2
 62
     4
  6
continuous
 10
206.80477995039308
 20
102.63422153644241
 11
206.80477995039308
 21
105.26036115117026
  0
LINE
  8
2
 62
     4
  6
continuous
 10
215.13811328372643
 20
102.63422153644241
 11
215.13811328372643
 21
105.26036115117026
  0
LINE
  8
2
 62
     4
  6
continuous
 10
128.05477995039328
 20
132.05203845341603
 11
128.05477995039328
 21
145.51932022815765
  0
LINE
  8
2
 62
     4
  6
continuous
 10
143.88811328372586
 20
132.05203845341606
 11
143.88811328372586
 21
145.51932022815765
  0
LINE
  8
2
 62
     4
  6
continuous
 10
141.92977995039277
 20
123.50203845341548
 11
141.92977995039277
 21
116.52970277549929
  0
LINE
  8
2
 62
     4
  6
continuous
 10
127.92977995039331
 20
124.67703845341573
 11
127.92977995039331
 21
111.52970277549926
  0
LINE
  8
2
 62
     4
  6
continuous
 10
144.01311328372634
 20
124.67703845341546
 11
144.01311328372634
 21
111.52970277549926
  0
LINE
  8
2
 62
     4
  6
continuous
 10
127.63811328372185
 20
61.343705120082547
 11
127.63811328372185
 21
53.526318419963644
  0
LINE
  8
2
 62
     4
  6
continuous
 10
144.30477995039325
 20
61.34370512008239
 11
144.30477995039325
 21
53.526318419963644
  0
LINE
  8
2
 62
     4
  6
continuous
 10
131.38811328372185
 20
64.843705120082575
 11
131.38811328372185
 21
70.526318419963644
  0
LINE
  8
2
 62
     4
  6
continuous
 10
140.55477995039303
 20
64.843705120082575
 11
140.55477995039303
 21
70.526318419963644
  0
LINE
  8
2
 62
     4
  6
continuous
 10
202.63811328372213
 20
61.093705120082582
 11
202.63811328372213
 21
53.27631841996368
  0
LINE
  8
2
 62
     4
  6
continuous
 10
219.30477995039354
 20
61.093705120082433
 11
219.30477995039354
 21
53.27631841996368
  0
LINE
  8
2
 62
     4
  6
continuous
 10
206.38811328372213
 20
64.593705120082603
 11
206.38811328372213
 21
70.276318419963673
  0
LINE
  8
2
 62
     4
  6
continuous
 10
215.55477995039331
 20
64.593705120082603
 11
215.55477995039331
 21
70.276318419963673
  0
LINE
  8
2
 62
     4
  6
continuous
 10
69.09883075556759
 20
34.593705120082497
 11
45.386543488609703
 21
34.593705120082497
  0
LINE
  8
2
 62
     4
  6
continuous
 10
56.348830755567406
 20
47.093705120082461
 11
45.386543488609703
 21
47.093705120082461
  0
LINE
  8
2
 62
     4
  6
continuous
 10
46.386543488609703
 20
34.593705120082497
 11
40.386543488609696
 21
34.593705120082497
  0
LINE
  8
2
 62
     4
  6
continuous
 10
51.386543488609703
 20
130.42703845341583
 11
40.386543488609696
 21
130.42703845341586
  0
LINE
  8
2
 62
     4
  6
continuous
 10
70.848830755567505
 20
124.59370512008249
 11
50.386543488609703
 21
124.59370512008249
  0
LINE
  8
2
 62
     4
  6
continuous
 10
85.932164088901118
 20
34.593705120082497
 11
92.926236489983353
 21
34.593705120082497
  0
LINE
  8
2
 62
     4
  6
continuous
 10
83.682164088901089
 20
39.593705120082497
 11
92.926236489983353
 21
39.593705120082497
  0
LINE
  8
2
 62
     4
  6
continuous
 10
73.59883075556759
 20
33.093705120082497
 11
73.59883075556759
 21
27.122713669134345
  0
LINE
  8
2
 62
     4
  6
continuous
 10
71.09883075556759
 20
33.093705120082497
 11
71.09883075556759
 21
27.122713669134345
  0
LINE
  8
2
 62
     4
  6
continuous
 10
81.932164088901118
 20
33.093705120082497
 11
81.932164088901118
 21
27.122713669134345
  0
LINE
  8
2
 62
     4
  6
continuous
 10
84.432164088901118
 20
33.093705120082497
 11
84.432164088901118
 21
27.122713669134345
  0
LINE
  8
2
 62
     4
  6
continuous
 10
151.63811328372589
 20
99.364538453414355
 11
151.63811328372589
 21
102.12757011317774
  0
LINE
  8
2
 62
     4
  6
continuous
 10
153.13811328372606
 20
99.364538453414355
 11
153.13811328372606
 21
102.12757011317774
  0
LINE
  8
2
 62
     4
  6
continuous
 10
150.60518648132989
 20
99.031205120081509
 11
148.26867468487785
 21
99.031205120081509
  0
LINE
  8
2
 62
     4
  6
continuous
 10
150.60518648132967
 20
95.697871786748749
 11
148.26867468487785
 21
95.697871786748749
  0
LINE
  8
2
 62
     4
  6
continuous
 10
210.76311328372634
 20
132.26037178674915
 11
210.76311328372634
 21
135.51932022815765
  0
LINE
  8
2
 62
     4
  6
continuous
 10
210.97144661705977
 20
133.11869838558803
 11
210.97144661705977
 21
135.51932022815765
  0
LINE
  8
2
 62
     4
  6
continuous
 10
210.76311328373561
 20
132.42703845341578
 11
210.76311328373561
 21
140.51932022815765
  0
LINE
  8
2
 62
     4
  6
continuous
 10
211.17977995039303
 20
132.42703845341578
 11
211.17977995039303
 21
140.51932022815765
  0
LINE
  8
2
 62
     4
  6
continuous
 10
205.01311328372361
 20
123.50203845341571
 11
205.01311328372361
 21
116.5297027754992
  0
LINE
  8
2
 62
     4
  6
continuous
 10
130.01311328372685
 20
123.50203845341578
 11
130.01311328372685
 21
116.52970277549929
  0
LINE
  8
2
 62
     4
  6
continuous
 10
131.8047799503928
 20
69.526318419963644
 11
130.32756832087449
 21
69.265846153463244
  0
LINE
  8
2
 62
     4
  6
continuous
 10
131.8047799503928
 20
69.526318419963644
 11
130.32756832087449
 21
69.78679068646403
  0
LINE
  8
2
 62
     4
  6
continuous
 10
131.38811328372185
 20
69.526318419963644
 11
132.86532491324016
 21
69.78679068646403
  0
LINE
  8
2
 62
     4
  6
continuous
 10
131.38811328372185
 20
69.526318419963644
 11
132.86532491324016
 21
69.265846153463244
  0
LINE
  8
2
 62
     4
  6
continuous
 10
129.42358029429556
 20
69.526318419963644
 11
134.41629654750562
 21
69.526318419963644
  0
LINE
  8
2
 62
     4
  6
continuous
 10
206.80477995039308
 20
69.276318419963673
 11
205.32756832087478
 21
69.015846153463286
  0
LINE
  8
2
 62
     4
  6
continuous
 10
206.80477995039308
 20
69.276318419963673
 11
205.32756832087478
 21
69.536790686464073
  0
LINE
  8
2
 62
     4
  6
continuous
 10
206.38811328372213
 20
69.276318419963673
 11
207.86532491324047
 21
69.536790686464073
  0
LINE
  8
2
 62
     4
  6
continuous
 10
206.38811328372213
 20
69.276318419963673
 11
207.86532491324047
 21
69.015846153463286
  0
LINE
  8
2
 62
     4
  6
continuous
 10
204.42358029429585
 20
69.276318419963673
 11
209.41629654750591
 21
69.276318419963673
  0
LINE
  8
2
 62
     4
  6
continuous
 10
210.44918854751035
 20
92.550888203109082
 11
210.18871628100999
 21
94.02809983262739
  0
LINE
  8
2
 62
     4
  6
continuous
 10
210.44918854751035
 20
92.550888203109082
 11
210.70966081401076
 21
94.02809983262739
  0
LINE
  8
2
 62
     4
  6
continuous
 10
210.44918854751035
 20
93.017554869775736
 11
210.70966081401073
 21
91.540343240257428
  0
LINE
  8
2
 62
     4
  6
continuous
 10
210.44918854751035
 20
93.017554869775736
 11
210.18871628100999
 21
91.540343240257428
  0
LINE
  8
2
 62
     4
  6
continuous
 10
210.44918854751035
 20
95.073178389459855
 11
210.44918854751035
 21
87.650690578419784
  0
LINE
  8
2
 62
     4
  6
continuous
 10
215.13811328372643
 20
94.194612179875918
 11
213.66090165420809
 21
93.934139913375532
  0
LINE
  8
2
 62
     4
  6
continuous
 10
215.13811328372643
 20
94.194612179875918
 11
213.66090165420809
 21
94.455084446376318
  0
LINE
  8
2
 62
     4
  6
continuous
 10
214.84644661705977
 20
94.194612179875918
 11
216.32365824657808
 21
94.455084446376318
  0
LINE
  8
2
 62
     4
  6
continuous
 10
214.84644661705977
 20
94.194612179875918
 11
216.32365824657808
 21
93.934139913375532
  0
LINE
  8
2
 62
     4
  6
continuous
 10
211.81942706569663
 20
94.194612179875918
 11
220.05868094300504
 21
94.194612179875918
  0
LINE
  8
2
 62
     4
  6
continuous
 10
153.13811328372606
 20
101.12757011317774
 11
151.66090165420775
 21
100.86709784667734
  0
LINE
  8
2
 62
     4
  6
continuous
 10
153.13811328372606
 20
101.12757011317774
 11
151.66090165420775
 21
101.38804237967813
  0
LINE
  8
2
 62
     4
  6
continuous
 10
151.63811328372589
 20
101.12757011317774
 11
153.11532491324419
 21
101.38804237967813
  0
LINE
  8
2
 62
     4
  6
continuous
 10
151.63811328372589
 20
101.12757011317774
 11
153.11532491324419
 21
100.86709784667734
  0
LINE
  8
2
 62
     4
  6
continuous
 10
149.81171588317744
 20
101.12757011317774
 11
156.87831230838782
 21
101.12757011317774
  0
LINE
  8
2
 62
     4
  6
continuous
 10
210.76311328372634
 20
134.51932022815765
 11
212.24032491324468
 21
134.77979249465804
  0
LINE
  8
2
 62
     4
  6
continuous
 10
210.76311328372634
 20
134.51932022815765
 11
212.24032491324468
 21
134.25884796165724
  0
LINE
  8
2
 62
     4
  6
continuous
 10
205.4900686487349
 20
134.51932022815765
 11
210.97144661705977
 21
134.51932022815765
  0
LINE
  8
2
 62
     4
  6
continuous
 10
211.17977995039303
 20
134.51932022815765
 11
209.70256832087469
 21
134.25884796165724
  0
LINE
  8
2
 62
     4
  6
continuous
 10
211.17977995039303
 20
134.51932022815765
 11
209.70256832087469
 21
134.77979249465804
  0
LINE
  8
2
 62
     4
  6
continuous
 10
210.97144661705977
 20
134.51932022815765
 11
216.41645768470818
 21
134.51932022815765
  0
LINE
  8
2
 62
     4
  6
continuous
 10
219.0131132837231
 20
117.5297027754992
 11
217.53590165420476
 21
117.26923050899882
  0
LINE
  8
2
 62
     4
  6
continuous
 10
219.0131132837231
 20
117.5297027754992
 11
217.53590165420476
 21
117.7901750419996
  0
LINE
  8
2
 62
     4
  6
continuous
 10
216.92977995038953
 20
117.5297027754992
 11
218.40699157990787
 21
117.7901750419996
  0
LINE
  8
2
 62
     4
  6
continuous
 10
216.92977995038953
 20
117.5297027754992
 11
218.40699157990787
 21
117.26923050899882
  0
LINE
  8
2
 62
     4
  6
continuous
 10
215.55139710002936
 20
117.5297027754992
 11
222.85057425924492
 21
117.5297027754992
  0
LINE
  8
2
 62
     4
  6
continuous
 10
205.01311328372361
 20
117.5297027754992
 11
203.5359016542053
 21
117.26923050899882
  0
LINE
  8
2
 62
     4
  6
continuous
 10
205.01311328372361
 20
117.5297027754992
 11
203.5359016542053
 21
117.7901750419996
  0
LINE
  8
2
 62
     4
  6
continuous
 10
202.92977995039007
 20
117.5297027754992
 11
204.40699157990838
 21
117.7901750419996
  0
LINE
  8
2
 62
     4
  6
continuous
 10
202.92977995039007
 20
117.5297027754992
 11
204.40699157990838
 21
117.26923050899882
  0
LINE
  8
2
 62
     4
  6
continuous
 10
198.79777948562833
 20
117.5297027754992
 11
206.4901726102334
 21
117.5297027754992
  0
LINE
  8
2
 62
     4
  6
continuous
 10
130.01311328372685
 20
117.52970277549929
 11
128.53590165420854
 21
117.26923050899889
  0
LINE
  8
2
 62
     4
  6
continuous
 10
130.01311328372685
 20
117.52970277549929
 11
128.53590165420854
 21
117.79017504199967
  0
LINE
  8
2
 62
     4
  6
continuous
 10
127.92977995039331
 20
117.52970277549929
 11
129.40699157991162
 21
117.79017504199967
  0
LINE
  8
2
 62
     4
  6
continuous
 10
127.92977995039331
 20
117.52970277549929
 11
129.40699157991162
 21
117.26923050899889
  0
LINE
  8
2
 62
     4
  6
continuous
 10
123.78401845823674
 20
117.52970277549929
 11
131.49017261023664
 21
117.52970277549929
  0
LINE
  8
2
 62
     4
  6
continuous
 10
144.01311328372634
 20
117.52970277549929
 11
142.53590165420803
 21
117.26923050899889
  0
LINE
  8
2
 62
     4
  6
continuous
 10
144.01311328372634
 20
117.52970277549929
 11
142.53590165420803
 21
117.79017504199967
  0
LINE
  8
2
 62
     4
  6
continuous
 10
141.92977995039277
 20
117.52970277549929
 11
143.40699157991108
 21
117.79017504199967
  0
LINE
  8
2
 62
     4
  6
continuous
 10
141.92977995039277
 20
117.52970277549929
 11
143.40699157991108
 21
117.26923050899889
  0
LINE
  8
2
 62
     4
  6
continuous
 10
140.5513971000326
 20
117.52970277549929
 11
148.38337559509674
 21
117.52970277549929
  0
LINE
  8
シ__ト8
 62
     7
  6
continuous
 10
114.76863843117101
 20
158.5179405962844
 11
252.26863843117101
 21
158.5179405962844
  0
LINE
  8
シ__ト8
 62
     3
  6
continuous
 10
114.76863843117101
 20
161.0179405962844
 11
118.93530509783766
 21
161.0179405962844
  0
LINE
  8
シ__ト8
 62
     3
  6
continuous
 10
114.76863843117101
 20
161.7679405962844
 11
118.93530509783766
 21
161.7679405962844
  0
LINE
  8
シ__ト8
 62
     7
  6
continuous
 10
252.26863843117101
 20
156.85127392961772
 11
109.43530509783768
 21
156.85127392961772
  0
LINE
  8
シ__ト8
 62
     3
  6
continuous
 10
120.60197176450431
 20
161.0179405962844
 11
160.60197176450436
 21
161.0179405962844
  0
LINE
  8
シ__ト8
 62
     3
  6
continuous
 10
120.60197176450431
 20
161.7679405962844
 11
160.60197176450436
 21
161.7679405962844
  0
LINE
  8
シ__ト8
 62
     2
  6
continuous
 10
114.76863843117101
 20
161.7679405962844
 11
114.76863843117101
 21
161.0179405962844
  0
LINE
  8
シ__ト8
 62
     3
  6
continuous
 10
162.26863843117101
 20
161.0179405962844
 11
202.26863843117101
 21
161.0179405962844
  0
LINE
  8
シ__ト8
 62
     3
  6
continuous
 10
162.26863843117101
 20
161.7679405962844
 11
202.26863843117101
 21
161.7679405962844
  0
LINE
  8
シ__ト8
 62
     3
  6
continuous
 10
203.93530509783767
 20
161.0179405962844
 11
243.93530509783767
 21
161.0179405962844
  0
LINE
  8
シ__ト8
 62
     3
  6
continuous
 10
203.93530509783767
 20
161.7679405962844
 11
243.93530509783767
 21
161.7679405962844
  0
LINE
  8
シ__ト8
 62
     2
  6
continuous
 10
114.83530509783768
 20
161.7679405962844
 11
114.83530509783768
 21
161.0179405962844
  0
LINE
  8
シ__ト8
 62
     7
  6
continuous
 10
252.26863843117101
 20
160.18460726295106
 11
252.26863843117101
 21
155.18460726295106
  0
LINE
  8
シ__ト8
 62
     7
  6
continuous
 10
114.76863843117101
 20
158.5179405962844
 11
114.76863843117101
 21
156.85127392961772
  0
LINE
  8
シ__ト8
 62
     3
  6
continuous
 10
114.76863843117101
 20
176.85127392961772
 11
252.26863843117101
 21
176.85127392961772
  0
LINE
  8
シ__ト8
 62
     7
  6
continuous
 10
252.26863843117101
 20
178.5179405962844
 11
252.26863843117101
 21
173.5179405962844
  0
LINE
  8
シ__ト8
 62
     3
  6
continuous
 10
114.76863843117101
 20
175.68460726295103
 11
252.26863843117101
 21
175.68460726295103
  0
LINE
  8
シ__ト8
 62
     6
  6
continuous
 10
120.60197176450431
 20
175.684607262951
 11
120.60197176450431
 21
158.5179405962844
  0
LINE
  8
シ__ト8
 62
     6
  6
continuous
 10
118.93530509783766
 20
175.684607262951
 11
118.93530509783766
 21
158.5179405962844
  0
LINE
  8
シ__ト8
 62
     6
  6
continuous
 10
162.26863843117098
 20
175.684607262951
 11
162.26863843117101
 21
158.5179405962844
  0
LINE
  8
シ__ト8
 62
     6
  6
continuous
 10
160.60197176450441
 20
175.684607262951
 11
160.60197176450436
 21
158.5179405962844
  0
LINE
  8
シ__ト8
 62
     2
  6
continuous
 10
203.14363843117101
 20
176.85127392961772
 11
203.14363843117357
 21
175.68460726295103
  0
LINE
  8
シ__ト8
 62
     2
  6
continuous
 10
203.06030509783767
 20
176.85127392961772
 11
203.06030509783699
 21
175.68460726295103
  0
LINE
  8
シ__ト8
 62
     2
  6
continuous
 10
161.47697176450436
 20
176.85127392961772
 11
161.47697176450689
 21
175.68460726295103
  0
LINE
  8
シ__ト8
 62
     2
  6
continuous
 10
161.39363843117101
 20
176.85127392961772
 11
161.3936384311703
 21
175.68460726295103
  0
LINE
  8
シ__ト8
 62
     6
  6
continuous
 10
203.93530509783753
 20
175.684607262951
 11
203.93530509783767
 21
158.5179405962844
  0
LINE
  8
シ__ト8
 62
     6
  6
continuous
 10
202.26863843117107
 20
175.684607262951
 11
202.26863843117101
 21
158.5179405962844
  0
LINE
  8
シ__ト8
 62
     2
  6
continuous
 10
203.14363843117101
 20
176.85127392961772
 11
203.14363843117357
 21
175.68460726295103
  0
LINE
  8
シ__ト8
 62
     2
  6
continuous
 10
203.06030509783767
 20
176.85127392961772
 11
203.06030509783699
 21
175.68460726295103
  0
LINE
  8
シ__ト8
 62
     6
  6
continuous
 10
245.60197176450421
 20
175.684607262951
 11
245.60197176450436
 21
158.5179405962844
  0
LINE
  8
シ__ト8
 62
     6
  6
continuous
 10
243.93530509783773
 20
175.684607262951
 11
243.93530509783767
 21
158.5179405962844
  0
LINE
  8
シ__ト8
 62
     2
  6
continuous
 10
244.81030509783767
 20
176.85127392961772
 11
244.81030509784023
 21
175.68460726295103
  0
LINE
  8
シ__ト8
 62
     2
  6
continuous
 10
244.72697176450436
 20
176.85127392961772
 11
244.72697176450362
 21
175.68460726295103
  0
LINE
  8
シ__ト8
 62
     2
  6
continuous
 10
114.83530509783768
 20
176.85127392961772
 11
114.83530509783763
 21
175.68460726295103
  0
LINE
  8
シ__ト8
 62
     2
  6
continuous
 10
114.76863843117101
 20
176.85127392961772
 11
114.76863843117032
 21
175.68460726295103
  0
LINE
  8
シ__ト8
 62
     7
  6
continuous
 10
252.26863843117101
 20
160.18460726295106
 11
251.43530509783767
 21
160.18460726295106
  0
LINE
  8
シ__ト8
 62
     7
  6
continuous
 10
253.10197176450436
 20
173.5179405962844
 11
252.26863843117101
 21
173.5179405962844
  0
LINE
  8
シ__ト8
 62
     7
  6
continuous
 10
253.10197176450436
 20
173.5179405962844
 11
251.43530509783767
 21
160.18460726295106
  0
LINE
  8
シ__ト8
 62
     3
  6
continuous
 10
245.60197176450436
 20
161.7679405962844
 11
251.63322176450455
 21
161.7679405962844
  0
LINE
  8
シ__ト8
 62
     3
  6
continuous
 10
245.60197176450436
 20
161.0179405962844
 11
251.53947176450453
 21
161.01794059628432
  0
LINE
  8
シ__ト8
 62
     7
  6
line_font22
 10
119.76863843117098
 20
178.10127392961772
 11
119.76863843117098
 21
157.71441645463219
  0
LINE
  8
シ__ト8
 62
     7
  6
line_font22
 10
161.43530509783767
 20
178.10127392961772
 11
161.43530509783764
 21
157.71441645463219
  0
LINE
  8
シ__ト8
 62
     7
  6
line_font22
 10
203.10197176450436
 20
178.10127392961772
 11
203.10197176450441
 21
157.71441645463219
  0
LINE
  8
シ__ト8
 62
     7
  6
line_font22
 10
244.76863843117101
 20
178.10127392961772
 11
244.76863843117121
 21
157.71441645463219
  0
LINE
  8
シ__ト8
 62
     4
  6
continuous
 10
164.86863843117106
 20
175.68460726295103
 11
164.86863843117098
 21
161.76794059628443
  0
LINE
  8
シ__ト8
 62
     4
  6
continuous
 10
164.56863843117085
 20
175.68460726295103
 11
164.568638431171
 21
161.76794059628443
  0
LINE
  8
シ__ト8
 62
     4
  6
continuous
 10
167.56863843117111
 20
175.68460726295103
 11
167.568638431171
 21
161.76794059628443
  0
LINE
  8
シ__ト8
 62
     4
  6
continuous
 10
167.26863843117087
 20
175.68460726295103
 11
167.26863843117098
 21
161.76794059628443
  0
LINE
  8
シ__ト8
 62
     4
  6
continuous
 10
170.2686384311711
 20
175.68460726295103
 11
170.26863843117098
 21
161.76794059628443
  0
LINE
  8
シ__ト8
 62
     4
  6
continuous
 10
169.96863843117086
 20
175.68460726295103
 11
169.96863843117097
 21
161.76794059628443
  0
LINE
  8
シ__ト8
 62
     4
  6
continuous
 10
172.96863843117112
 20
175.68460726295103
 11
172.96863843117097
 21
161.76794059628443
  0
LINE
  8
シ__ト8
 62
     4
  6
continuous
 10
172.66863843117085
 20
175.68460726295103
 11
172.66863843117099
 21
161.76794059628443
  0
LINE
  8
シ__ト8
 62
     4
  6
continuous
 10
175.6686384311711
 20
175.68460726295103
 11
175.66863843117102
 21
161.76794059628443
  0
LINE
  8
シ__ト8
 62
     4
  6
continuous
 10
175.36863843117089
 20
175.68460726295103
 11
175.36863843117101
 21
161.76794059628443
  0
LINE
  8
シ__ト8
 62
     4
  6
continuous
 10
178.36863843117109
 20
175.68460726295103
 11
178.36863843117101
 21
161.76794059628443
  0
LINE
  8
シ__ト8
 62
     4
  6
continuous
 10
178.06863843117088
 20
175.68460726295103
 11
178.06863843117102
 21
161.76794059628443
  0
LINE
  8
シ__ト8
 62
     4
  6
continuous
 10
181.06863843117111
 20
175.68460726295103
 11
181.06863843117105
 21
161.76794059628443
  0
LINE
  8
シ__ト8
 62
     4
  6
continuous
 10
180.76863843117093
 20
175.68460726295103
 11
180.76863843117104
 21
161.76794059628443
  0
LINE
  8
シ__ト8
 62
     4
  6
continuous
 10
183.76863843117113
 20
175.68460726295103
 11
183.76863843117104
 21
161.76794059628443
  0
LINE
  8
シ__ト8
 62
     4
  6
continuous
 10
183.46863843117092
 20
175.68460726295103
 11
183.46863843117103
 21
161.76794059628443
  0
LINE
  8
シ__ト8
 62
     4
  6
continuous
 10
186.46863843117114
 20
175.68460726295103
 11
186.46863843117103
 21
161.76794059628443
  0
LINE
  8
シ__ト8
 62
     4
  6
continuous
 10
186.16863843117093
 20
175.68460726295103
 11
186.16863843117105
 21
161.76794059628443
  0
LINE
  8
シ__ト8
 62
     4
  6
continuous
 10
189.16863843117116
 20
175.68460726295103
 11
189.16863843117105
 21
161.76794059628443
  0
LINE
  8
シ__ト8
 62
     4
  6
continuous
 10
188.86863843117092
 20
175.68460726295103
 11
188.86863843117104
 21
161.76794059628443
  0
LINE
  8
シ__ト8
 62
     4
  6
continuous
 10
191.86863843117118
 20
175.68460726295103
 11
191.86863843117104
 21
161.76794059628443
  0
LINE
  8
シ__ト8
 62
     4
  6
continuous
 10
191.56863843117091
 20
175.68460726295103
 11
191.56863843117105
 21
161.76794059628443
  0
LINE
  8
シ__ト8
 62
     4
  6
continuous
 10
194.56863843117117
 20
175.68460726295103
 11
194.56863843117105
 21
161.76794059628443
  0
LINE
  8
シ__ト8
 62
     4
  6
continuous
 10
194.26863843117093
 20
175.68460726295103
 11
194.26863843117104
 21
161.76794059628443
  0
LINE
  8
シ__ト8
 62
     4
  6
continuous
 10
197.26863843117115
 20
175.68460726295103
 11
197.26863843117107
 21
161.76794059628443
  0
LINE
  8
シ__ト8
 62
     4
  6
continuous
 10
196.96863843117094
 20
175.68460726295103
 11
196.96863843117109
 21
161.76794059628443
  0
LINE
  8
シ__ト8
 62
     4
  6
continuous
 10
199.96863843117117
 20
175.68460726295103
 11
199.96863843117109
 21
161.76794059628443
  0
LINE
  8
シ__ト8
 62
     4
  6
continuous
 10
199.66863843117096
 20
175.68460726295103
 11
199.66863843117108
 21
161.76794059628443
  0
LINE
  8
シ__ト8
 62
     4
  6
continuous
 10
123.20197176450441
 20
175.68460726295103
 11
123.20197176450432
 21
161.76794059628443
  0
LINE
  8
シ__ト8
 62
     4
  6
continuous
 10
122.9019717645042
 20
175.68460726295103
 11
122.90197176450431
 21
161.76794059628443
  0
LINE
  8
シ__ト8
 62
     4
  6
continuous
 10
125.90197176450441
 20
175.68460726295103
 11
125.90197176450431
 21
161.76794059628443
  0
LINE
  8
シ__ト8
 62
     4
  6
continuous
 10
125.6019717645042
 20
175.68460726295103
 11
125.60197176450431
 21
161.76794059628443
  0
LINE
  8
シ__ト8
 62
     4
  6
continuous
 10
128.60197176450444
 20
175.68460726295103
 11
128.60197176450433
 21
161.76794059628443
  0
LINE
  8
シ__ト8
 62
     4
  6
continuous
 10
128.3019717645042
 20
175.68460726295103
 11
128.30197176450434
 21
161.76794059628443
  0
LINE
  8
シ__ト8
 62
     4
  6
continuous
 10
131.30197176450443
 20
175.68460726295103
 11
131.30197176450434
 21
161.76794059628443
  0
LINE
  8
シ__ト8
 62
     4
  6
continuous
 10
131.00197176450422
 20
175.68460726295103
 11
131.00197176450433
 21
161.76794059628443
  0
LINE
  8
シ__ト8
 62
     4
  6
continuous
 10
134.00197176450445
 20
175.68460726295103
 11
134.00197176450433
 21
161.76794059628443
  0
LINE
  8
シ__ト8
 62
     4
  6
continuous
 10
133.70197176450424
 20
175.68460726295103
 11
133.70197176450435
 21
161.76794059628443
  0
LINE
  8
シ__ト8
 62
     4
  6
continuous
 10
136.70197176450444
 20
175.68460726295103
 11
136.70197176450435
 21
161.76794059628443
  0
LINE
  8
シ__ト8
 62
     4
  6
continuous
 10
136.40197176450422
 20
175.68460726295103
 11
136.40197176450434
 21
161.76794059628443
  0
LINE
  8
シ__ト8
 62
     4
  6
continuous
 10
139.40197176450442
 20
175.68460726295103
 11
139.40197176450437
 21
161.76794059628443
  0
LINE
  8
シ__ト8
 62
     4
  6
continuous
 10
139.10197176450424
 20
175.68460726295103
 11
139.10197176450438
 21
161.76794059628443
  0
LINE
  8
シ__ト8
 62
     4
  6
continuous
 10
142.10197176450444
 20
175.68460726295103
 11
142.10197176450438
 21
161.76794059628443
  0
LINE
  8
シ__ト8
 62
     4
  6
continuous
 10
141.80197176450426
 20
175.68460726295103
 11
141.80197176450437
 21
161.76794059628443
  0
LINE
  8
シ__ト8
 62
     4
  6
continuous
 10
144.80197176450446
 20
175.68460726295103
 11
144.80197176450437
 21
161.76794059628443
  0
LINE
  8
シ__ト8
 62
     4
  6
continuous
 10
144.50197176450425
 20
175.68460726295103
 11
144.50197176450439
 21
161.76794059628443
  0
LINE
  8
シ__ト8
 62
     4
  6
continuous
 10
147.50197176450448
 20
175.68460726295103
 11
147.50197176450439
 21
161.76794059628443
  0
LINE
  8
シ__ト8
 62
     4
  6
continuous
 10
147.20197176450426
 20
175.68460726295103
 11
147.20197176450438
 21
161.76794059628443
  0
LINE
  8
シ__ト8
 62
     4
  6
continuous
 10
150.20197176450449
 20
175.68460726295103
 11
150.20197176450438
 21
161.76794059628443
  0
LINE
  8
シ__ト8
 62
     4
  6
continuous
 10
149.90197176450425
 20
175.68460726295103
 11
149.90197176450437
 21
161.76794059628443
  0
LINE
  8
シ__ト8
 62
     4
  6
continuous
 10
152.90197176450448
 20
175.68460726295103
 11
152.90197176450437
 21
161.76794059628443
  0
LINE
  8
シ__ト8
 62
     4
  6
continuous
 10
152.60197176450424
 20
175.68460726295103
 11
152.60197176450438
 21
161.76794059628443
  0
LINE
  8
シ__ト8
 62
     4
  6
continuous
 10
155.6019717645045
 20
175.68460726295103
 11
155.60197176450441
 21
161.76794059628443
  0
LINE
  8
シ__ト8
 62
     4
  6
continuous
 10
155.30197176450429
 20
175.68460726295103
 11
155.3019717645044
 21
161.76794059628443
  0
LINE
  8
シ__ト8
 62
     4
  6
continuous
 10
158.30197176450449
 20
175.68460726295103
 11
158.3019717645044
 21
161.76794059628443
  0
LINE
  8
シ__ト8
 62
     4
  6
continuous
 10
158.00197176450428
 20
175.68460726295103
 11
158.00197176450442
 21
161.76794059628443
  0
LINE
  8
シ__ト8
 62
     4
  6
continuous
 10
206.53530509783775
 20
175.68460726295103
 11
206.53530509783764
 21
161.76794059628443
  0
LINE
  8
シ__ト8
 62
     4
  6
continuous
 10
206.23530509783754
 20
175.68460726295103
 11
206.23530509783765
 21
161.76794059628443
  0
LINE
  8
シ__ト8
 62
     4
  6
continuous
 10
209.23530509783774
 20
175.68460726295103
 11
209.23530509783765
 21
161.76794059628443
  0
LINE
  8
シ__ト8
 62
     4
  6
continuous
 10
208.93530509783753
 20
175.68460726295103
 11
208.93530509783764
 21
161.76794059628443
  0
LINE
  8
シ__ト8
 62
     4
  6
continuous
 10
211.93530509783773
 20
175.68460726295103
 11
211.93530509783767
 21
161.76794059628443
  0
LINE
  8
シ__ト8
 62
     4
  6
continuous
 10
211.63530509783754
 20
175.68460726295103
 11
211.63530509783769
 21
161.76794059628443
  0
LINE
  8
シ__ト8
 62
     4
  6
continuous
 10
214.63530509783774
 20
175.68460726295103
 11
214.63530509783769
 21
161.76794059628443
  0
LINE
  8
シ__ト8
 62
     4
  6
continuous
 10
214.33530509783756
 20
175.68460726295103
 11
214.33530509783768
 21
161.76794059628443
  0
LINE
  8
シ__ト8
 62
     4
  6
continuous
 10
217.33530509783776
 20
175.68460726295103
 11
217.33530509783768
 21
161.76794059628443
  0
LINE
  8
シ__ト8
 62
     4
  6
continuous
 10
217.03530509783755
 20
175.68460726295103
 11
217.03530509783766
 21
161.76794059628443
  0
LINE
  8
シ__ト8
 62
     4
  6
continuous
 10
220.03530509783778
 20
175.68460726295103
 11
220.03530509783766
 21
161.76794059628443
  0
LINE
  8
シ__ト8
 62
     4
  6
continuous
 10
219.73530509783757
 20
175.68460726295103
 11
219.73530509783768
 21
161.76794059628443
  0
LINE
  8
シ__ト8
 62
     4
  6
continuous
 10
222.7353050978378
 20
175.68460726295103
 11
222.73530509783768
 21
161.76794059628443
  0
LINE
  8
シ__ト8
 62
     4
  6
continuous
 10
222.43530509783756
 20
175.68460726295103
 11
222.43530509783767
 21
161.76794059628443
  0
LINE
  8
シ__ト8
 62
     4
  6
continuous
 10
225.43530509783781
 20
175.68460726295103
 11
225.43530509783767
 21
161.76794059628443
  0
LINE
  8
シ__ト8
 62
     4
  6
continuous
 10
225.13530509783754
 20
175.68460726295103
 11
225.13530509783769
 21
161.76794059628443
  0
LINE
  8
シ__ト8
 62
     4
  6
continuous
 10
228.1353050978378
 20
175.68460726295103
 11
228.13530509783772
 21
161.76794059628443
  0
LINE
  8
シ__ト8
 62
     4
  6
continuous
 10
227.83530509783759
 20
175.68460726295103
 11
227.8353050978377
 21
161.76794059628443
  0
LINE
  8
シ__ト8
 62
     4
  6
continuous
 10
230.83530509783779
 20
175.68460726295103
 11
230.8353050978377
 21
161.76794059628443
  0
LINE
  8
シ__ト8
 62
     4
  6
continuous
 10
230.53530509783758
 20
175.68460726295103
 11
230.53530509783772
 21
161.76794059628443
  0
LINE
  8
シ__ト8
 62
     4
  6
continuous
 10
233.53530509783781
 20
175.68460726295103
 11
233.53530509783775
 21
161.76794059628443
  0
LINE
  8
シ__ト8
 62
     4
  6
continuous
 10
233.23530509783762
 20
175.68460726295103
 11
233.23530509783774
 21
161.76794059628443
  0
LINE
  8
シ__ト8
 62
     4
  6
continuous
 10
236.23530509783777
 20
175.68460726295103
 11
236.23530509783774
 21
161.76794059628443
  0
LINE
  8
シ__ト8
 62
     4
  6
continuous
 10
235.93530509783758
 20
175.68460726295103
 11
235.93530509783773
 21
161.76794059628443
  0
LINE
  8
シ__ト8
 62
     4
  6
continuous
 10
238.93530509783784
 20
175.68460726295103
 11
238.93530509783773
 21
161.76794059628443
  0
LINE
  8
シ__ト8
 62
     4
  6
continuous
 10
238.63530509783763
 20
175.68460726295103
 11
238.63530509783772
 21
161.76794059628443
  0
LINE
  8
シ__ト8
 62
     4
  6
continuous
 10
241.63530509783783
 20
175.68460726295103
 11
241.63530509783772
 21
161.76794059628443
  0
LINE
  8
シ__ト8
 62
     4
  6
continuous
 10
241.33530509783762
 20
175.68460726295103
 11
241.33530509783773
 21
161.76794059628443
  0
LINE
  8
シ__ト8
 62
     4
  6
continuous
 10
250.60197176450419
 20
175.68460726295103
 11
250.60197176450424
 21
161.76794059628443
  0
LINE
  8
シ__ト8
 62
     4
  6
continuous
 10
250.9019717645044
 20
175.68460726295103
 11
250.90197176450428
 21
161.76794059628443
  0
LINE
  8
シ__ト8
 62
     4
  6
continuous
 10
247.9019717645042
 20
175.68460726295103
 11
247.90197176450428
 21
161.76794059628443
  0
LINE
  8
シ__ト8
 62
     4
  6
continuous
 10
248.20197176450441
 20
175.68460726295103
 11
248.20197176450429
 21
161.76794059628443
  0
LINE
  8
シ__ト8
 62
     4
  6
continuous
 10
116.33530509783756
 20
175.68460726295103
 11
116.33530509783765
 21
161.76794059628443
  0
LINE
  8
シ__ト8
 62
     4
  6
continuous
 10
116.63530509783777
 20
175.68460726295103
 11
116.63530509783764
 21
161.76794059628443
  0
LINE
  8
シ__ト8
 62
     4
  6
continuous
 10
113.26863843117101
 20
158.5179405962844
 11
109.25496170637473
 21
158.5179405962844
  0
LINE
  8
シ__ト8
 62
     4
  6
continuous
 10
113.26863843117101
 20
176.85127392961772
 11
109.25496170637473
 21
176.85127392961772
  0
LINE
  8
シ__ト8
 62
     4
  6
continuous
 10
110.25496170637473
 20
158.5179405962844
 11
109.99448943987434
 21
159.99515222580271
  0
LINE
  8
シ__ト8
 62
     4
  6
continuous
 10
110.25496170637473
 20
158.5179405962844
 11
110.51543397287513
 21
159.99515222580268
  0
LINE
  8
シ__ト8
 62
     4
  6
continuous
 10
110.25496170637473
 20
176.85127392961772
 11
110.51543397287513
 21
175.37406230009941
  0
LINE
  8
シ__ト8
 62
     4
  6
continuous
 10
110.25496170637473
 20
176.85127392961772
 11
109.99448943987434
 21
175.37406230009944
  0
LINE
  8
シ__ト8
 62
     4
  6
continuous
 10
110.25496170637473
 20
158.5179405962844
 11
110.25496170637473
 21
176.85127392961772
  0
LINE
  8
シ__ト8
 62
     4
  6
continuous
 10
82.669430795660531
 20
183.53961550593272
 11
100.36925870035367
 21
183.53961550593272
  0
LINE
  8
シ__ト8
 62
     4
  6
continuous
 10
56.04160206624357
 20
144.87703606887064
 11
73.741429970936707
 21
144.87703606887064
  0
LINE
  8
シ__ト8
 62
     4
  6
continuous
 10
203.10197176450436
 20
179.60127392961772
 11
203.10197176450436
 21
190.97721313508845
  0
LINE
  8
シ__ト8
 62
     4
  6
continuous
 10
244.76863843117101
 20
179.60127392961772
 11
244.76863843117101
 21
190.97721313508845
  0
LINE
  8
シ__ト8
 62
     4
  6
continuous
 10
114.76863843117101
 20
179.85127392961772
 11
114.76863843117101
 21
190.97721313508845
  0
LINE
  8
シ__ト8
 62
     4
  6
continuous
 10
161.43530509783767
 20
179.60127392961772
 11
161.43530509783767
 21
190.97721313508845
  0
LINE
  8
シ__ト8
 62
     4
  6
continuous
 10
119.76863843117098
 20
179.60127392961772
 11
119.76863843117098
 21
185.97721313508845
  0
LINE
  8
シ__ト8
 62
     4
  6
continuous
 10
114.76863843117101
 20
178.35127392961772
 11
114.76863843117101
 21
185.97721313508845
  0
LINE
  8
シ__ト8
 62
     4
  6
continuous
 10
199.81863843117108
 20
177.18460726295103
 11
199.81863843117108
 21
180.97721313508845
  0
LINE
  8
シ__ト8
 62
     4
  6
continuous
 10
164.71863843117097
 20
177.18460726295103
 11
164.71863843117097
 21
180.97721313508845
  0
LINE
  8
シ__ト14
 62
     6
  6
continuous
 10
25.999999999999993
 20
200.5
 11
290.99999999999994
 21
200.5
  0
LINE
  8
シ__ト14
 62
     7
  6
continuous
 10
25.999999999999993
 20
21.499999999999996
 11
25.999999999999993
 21
200.5
  0
LINE
  8
シ__ト14
 62
     6
  6
continuous
 10
25.999999999999993
 20
200.5
 11
25.999999999999993
 21
21.5
  0
LINE
  8
シ__ト14
 62
     6
  6
continuous
 10
25.999999999999993
 20
21.499999999999996
 11
290.99999999999994
 21
21.499999999999996
  0
LINE
  8
シ__ト14
 62
     6
  6
continuous
 10
290.99999999999994
 20
21.499999999999996
 11
25.999999999999993
 21
21.499999999999996
  0
LINE
  8
シ__ト14
 62
     4
  6
continuous
 10
290.99999999999989
 20
21.499999999999996
 11
290.99999999999966
 21
16.500000000000004
  0
LINE
  8
シ__ト14
 62
     6
  6
continuous
 10
290.99999999999989
 20
16.499999999999996
 11
290.99999999999994
 21
200.5
  0
LINE
  8
シ__ト14
 62
     4
  6
continuous
 10
225.99999999999972
 20
16.5
 11
290.99999999999994
 21
16.499999999999996
  0
LINE
  8
シ__ト14
 62
     4
  6
continuous
 10
225.99999999999997
 20
21.499999999999996
 11
225.99999999999972
 21
16.5
  0
LINE
  8
シ__ト14
 62
     4
  6
continuous
 10
15.999999999999995
 20
11.499999999999998
 11
18.528397122204989
 21
11.499999999999998
  0
LINE
  8
シ__ト14
 62
     4
  6
continuous
 10
15.999999999999995
 20
11.499999999999998
 11
15.999999999999995
 21
14.270657035378498
  0
CIRCLE
  8
2
 62
     2
  6
continuous
 10
77.765497422234063
 20
51.260371786749154
 40
0.25
  0
CIRCLE
  8
2
 62
     3
  6
line_font28
 10
67.348830755567406
 20
40.427038453415832
 40
0.54166666666666663
  0
CIRCLE
  8
2
 62
     4
  6
continuous
 10
77.765497422234063
 20
61.343705120082468
 40
0.70833333333333326
  0
CIRCLE
  8
2
 62
     4
  6
continuous
 10
77.765497422234063
 20
61.343705120082468
 40
0.87499999999999978
  0
CIRCLE
  8
2
 62
     2
  6
line_font28
 10
88.182164088900734
 20
36.260371786749161
 40
0.54166666666666663
  0
CIRCLE
  8
2
 62
     4
  6
continuous
 10
133.88811328372631
 20
37.510373036749172
 40
1
  0
CIRCLE
  8
2
 62
     4
  6
continuous
 10
133.88811328372631
 20
37.510373036749172
 40
1.25
  0
CIRCLE
  8
2
 62
     4
  6
continuous
 10
138.05477995039297
 20
37.510373036749172
 40
1
  0
CIRCLE
  8
2
 62
     4
  6
continuous
 10
138.05477995039297
 20
37.510373036749172
 40
1.25
  0
CIRCLE
  8
2
 62
     4
  6
continuous
 10
79.848830755567789
 20
123.76037178674844
 40
0.54166666666666663
  0
CIRCLE
  8
2
 62
     4
  6
continuous
 10
79.848830755567789
 20
123.76037178674844
 40
0.70833333333333326
  0
CIRCLE
  8
2
 62
     4
  6
continuous
 10
75.682164088900507
 20
123.76037178674844
 40
0.54166666666666663
  0
CIRCLE
  8
2
 62
     4
  6
continuous
 10
75.682164088900507
 20
123.76037178674844
 40
0.70833333333333326
  0
ARC
  8
2
 62
     3
  6
continuous
 10
119.74314800594853
 20
40.156205120082532
 40
0.27170138888888767
 50
94.581220085279469
 51
265.41877991472052
  0
ARC
  8
2
 62
     3
  6
continuous
 10
119.69974522817076
 20
40.697871786749204
 40
0.27170138888889012
 50
274.58122008528233
 51
85.418779914720659
  0
ARC
  8
2
 62
     3
  6
continuous
 10
119.87862795534676
 20
40.591930065751981
 40
0.40824675708632779
 50
112.64470389125552
 51
216.63430308081661
  0
ARC
  8
2
 62
     3
  6
continuous
 10
128.03307856150408
 20
40.697871786749204
 40
0.27170138888888767
 50
274.58122008527636
 51
85.418779914723643
  0
ARC
  8
2
 62
     3
  6
continuous
 10
128.07648133928186
 20
40.156205120082532
 40
0.27170138888889012
 50
94.581220085282339
 51
265.41877991472364
  0
ARC
  8
2
 62
     3
  6
continuous
 10
127.89759861210587
 20
40.262146841079712
 40
0.40824675708632779
 50
292.64470389125108
 51
36.634303080816615
  0
ARC
  8
2
 62
     3
  6
continuous
 10
143.49314800594857
 20
40.156205120082532
 40
0.27170138888888767
 50
94.581220085282453
 51
265.41877991471756
  0
ARC
  8
2
 62
     3
  6
continuous
 10
143.44974522817071
 20
40.697871786749204
 40
0.27170138888889012
 50
274.58122008528233
 51
85.418779914723643
  0
ARC
  8
2
 62
     3
  6
continuous
 10
143.62862795534676
 20
40.591930065751981
 40
0.40824675708632779
 50
112.64470389125552
 51
216.63430308081661
  0
ARC
  8
2
 62
     3
  6
continuous
 10
151.78307856150408
 20
40.697871786749204
 40
0.27170138888888767
 50
274.58122008527636
 51
85.418779914723643
  0
ARC
  8
2
 62
     3
  6
continuous
 10
151.82648133928188
 20
40.156205120082532
 40
0.27170138888889012
 50
94.581220085282339
 51
265.41877991472364
  0
ARC
  8
2
 62
     3
  6
continuous
 10
151.64759861210587
 20
40.262146841079712
 40
0.40824675708632779
 50
292.64470389125108
 51
36.634303080816615
  0
ARC
  8
2
 62
     4
  6
continuous
 10
128.88811328372185
 20
62.452038453415931
 40
1.25
 50
78.912510789029454
 51
101.08748921097184
  0
ARC
  8
2
 62
     4
  6
continuous
 10
128.67977995038851
 20
63.515151021930315
 40
0.16666666666666666
 50
101.08748921097627
 51
180
  0
ARC
  8
2
 62
     4
  6
continuous
 10
129.09644661705516
 20
63.515151021930315
 40
0.16666666666666666
 50
0
 51
78.912510789023742
  0
ARC
  8
2
 62
     4
  6
continuous
 10
143.05477995039303
 20
62.452038453415931
 40
1.25
 50
78.912510789028175
 51
101.08748921097055
  0
ARC
  8
2
 62
     4
  6
continuous
 10
142.84644661705971
 20
63.515151021930315
 40
0.16666666666666666
 50
101.08748921097627
 51
180
  0
ARC
  8
2
 62
     4
  6
continuous
 10
143.26311328372637
 20
63.515151021930315
 40
0.16666666666666666
 50
0
 51
78.912510789023742
  0
ARC
  8
2
 62
     7
  6
continuous
 10
127.72144661705518
 20
62.843705120082547
 40
0.083333333333333329
 50
180
 51
270
  0
ARC
  8
2
 62
     7
  6
continuous
 10
130.72144661705516
 20
62.510371786749246
 40
0.25
 50
0
 51
90
  0
ARC
  8
2
 62
     7
  6
continuous
 10
131.05477995038851
 20
60.343705120082547
 40
0.083333333333333329
 50
180
 51
270
  0
ARC
  8
2
 62
     4
  6
continuous
 10
130.98880772816625
 20
61.218705120082355
 40
0.76736111111110994
 50
147.79577249602693
 51
212.20422750397307
  0
ARC
  8
2
 62
     4
  6
continuous
 10
130.45755772816628
 20
61.832139781096359
 40
0.23611111111111049
 50
120.00000000000455
 51
239.99999999999545
  0
ARC
  8
2
 62
     4
  6
continuous
 10
130.45755772816628
 20
60.605270459068407
 40
0.23611111111111144
 50
120.00000000000455
 51
239.99999999999545
  0
ARC
  8
2
 62
     4
  6
continuous
 10
141.24575217261528
 20
61.218705120082355
 40
0.76736111111110994
 50
327.79577249602983
 51
32.204227503970138
  0
ARC
  8
2
 62
     4
  6
continuous
 10
141.77700217261528
 20
61.832139781096359
 40
0.23611111111111049
 50
300.00000000000455
 51
59.999999999995481
  0
ARC
  8
2
 62
     4
  6
continuous
 10
141.77700217261528
 20
60.605270459068407
 40
0.23611111111111144
 50
300.00000000000455
 51
59.999999999995467
  0
ARC
  8
2
 62
     4
  6
continuous
 10
128.88811328372151
 20
62.679816231193655
 40
0.36111111111110994
 50
237.79577249602261
 51
302.20422750397177
  0
ARC
  8
2
 62
     4
  6
continuous
 10
129.17678841831628
 20
62.429816231193655
 40
0.11111111111111099
 50
210.00000000001086
 51
330.00000000000921
  0
ARC
  8
2
 62
     4
  6
continuous
 10
128.59943814912666
 20
62.429816231193655
 40
0.11111111111111099
 50
209.99999999999082
 51
330.00000000000921
  0
ARC
  8
2
 62
     7
  6
continuous
 10
144.22144661705991
 20
62.84370512008239
 40
0.083333333333333329
 50
270
 51
360
  0
ARC
  8
2
 62
     7
  6
continuous
 10
141.22144661705988
 20
62.510371786749076
 40
0.25
 50
90
 51
180
  0
ARC
  8
2
 62
     7
  6
continuous
 10
140.88811328372657
 20
60.34370512008239
 40
0.083333333333333329
 50
270
 51
360
  0
ARC
  8
2
 62
     4
  6
continuous
 10
143.05477995039257
 20
62.679816231193577
 40
0.36111111111110994
 50
237.79577249602261
 51
302.20422750397233
  0
ARC
  8
2
 62
     4
  6
continuous
 10
143.3434550849874
 20
62.429816231193598
 40
0.11111111111111099
 50
210.00000000001086
 51
330.00000000000921
  0
ARC
  8
2
 62
     4
  6
continuous
 10
142.76610481579772
 20
62.429816231193598
 40
0.11111111111111099
 50
209.99999999999082
 51
330.00000000000921
  0
ARC
  8
2
 62
     4
  6
continuous
 10
203.88811328372188
 20
62.452038453415931
 40
1.25
 50
78.912510789029454
 51
101.08748921097055
  0
ARC
  8
2
 62
     4
  6
continuous
 10
203.67977995038854
 20
63.515151021930315
 40
0.16666666666666666
 50
101.08748921096668
 51
180
  0
ARC
  8
2
 62
     4
  6
continuous
 10
204.09644661705522
 20
63.515151021930315
 40
0.16666666666666666
 50
0
 51
78.91251078903332
  0
ARC
  8
2
 62
     4
  6
continuous
 10
218.05477995039308
 20
62.452038453415931
 40
1.25
 50
78.912510789029454
 51
101.08748921096921
  0
ARC
  8
2
 62
     4
  6
continuous
 10
217.84644661705977
 20
63.515151021930315
 40
0.16666666666666666
 50
101.08748921096668
 51
180
  0
ARC
  8
2
 62
     4
  6
continuous
 10
218.26311328372643
 20
63.515151021930315
 40
0.16666666666666666
 50
0
 51
78.91251078903332
  0
ARC
  8
2
 62
     7
  6
continuous
 10
202.72144661705522
 20
62.843705120082547
 40
0.083333333333333329
 50
180
 51
270
  0
ARC
  8
2
 62
     7
  6
continuous
 10
205.72144661705522
 20
62.510371786749246
 40
0.25
 50
0
 51
90
  0
ARC
  8
2
 62
     7
  6
continuous
 10
206.05477995038854
 20
60.343705120082547
 40
0.083333333333333329
 50
180
 51
270
  0
ARC
  8
2
 62
     4
  6
continuous
 10
205.98880772816631
 20
61.218705120082355
 40
0.76736111111110994
 50
147.79577249602693
 51
212.20422750397307
  0
ARC
  8
2
 62
     4
  6
continuous
 10
205.45755772816631
 20
61.832139781096359
 40
0.23611111111111049
 50
119.99999999999683
 51
240.00000000000313
  0
ARC
  8
2
 62
     4
  6
continuous
 10
205.45755772816631
 20
60.605270459068407
 40
0.23611111111111144
 50
119.99999999999683
 51
240.00000000000313
  0
ARC
  8
2
 62
     4
  6
continuous
 10
216.24575217261534
 20
61.218705120082355
 40
0.76736111111110994
 50
327.79577249602693
 51
32.204227503973073
  0
ARC
  8
2
 62
     4
  6
continuous
 10
216.77700217261534
 20
61.832139781096359
 40
0.23611111111111049
 50
299.99999999999682
 51
60.000000000003162
  0
ARC
  8
2
 62
     4
  6
continuous
 10
216.77700217261534
 20
60.605270459068407
 40
0.23611111111111144
 50
299.99999999999682
 51
60.000000000003162
  0
ARC
  8
2
 62
     4
  6
continuous
 10
203.88811328372151
 20
62.679816231193655
 40
0.36111111111110994
 50
237.79577249602261
 51
302.20422750397177
  0
ARC
  8
2
 62
     4
  6
continuous
 10
204.17678841831633
 20
62.429816231193655
 40
0.11111111111111099
 50
210.00000000001086
 51
329.99999999998914
  0
ARC
  8
2
 62
     4
  6
continuous
 10
203.59943814912666
 20
62.429816231193655
 40
0.11111111111111099
 50
210.00000000001086
 51
329.99999999998914
  0
ARC
  8
2
 62
     7
  6
continuous
 10
219.22144661705991
 20
62.84370512008239
 40
0.083333333333333329
 50
270
 51
360
  0
ARC
  8
2
 62
     7
  6
continuous
 10
216.22144661705991
 20
62.510371786749076
 40
0.25
 50
90
 51
180
  0
ARC
  8
2
 62
     7
  6
continuous
 10
215.88811328372657
 20
60.34370512008239
 40
0.083333333333333329
 50
270
 51
360
  0
ARC
  8
2
 62
     4
  6
continuous
 10
218.05477995039263
 20
62.679816231193577
 40
0.36111111111110994
 50
237.79577249602764
 51
302.20422750397739
  0
ARC
  8
2
 62
     4
  6
continuous
 10
218.34345508498748
 20
62.429816231193598
 40
0.11111111111111099
 50
210.00000000001086
 51
329.99999999998914
  0
ARC
  8
2
 62
     4
  6
continuous
 10
217.7661048157978
 20
62.429816231193598
 40
0.11111111111111099
 50
210.00000000001086
 51
329.99999999998914
  0
ARC
  8
2
 62
     7
  6
continuous
 10
80.057164088900734
 20
47.249955120082497
 40
6.5104166666666536
 50
73.261743238620326
 51
110.60969293753215
  0
ARC
  8
2
 62
     7
  6
continuous
 10
80.057164088900734
 20
43.083288453415832
 40
6.5104166666666536
 50
73.261743238620056
 51
110.60969293753215
  0
ARC
  8
2
 62
     7
  6
continuous
 10
75.473830755567406
 20
59.437455120082468
 40
6.5104166666666625
 50
253.26174323862176
 51
290.60969293753197
  0
ARC
  8
2
 62
     7
  6
continuous
 10
75.473830755567406
 20
55.270788453415818
 40
6.5104166666666625
 50
253.26174323862193
 51
290.60969293753197
  0
ARC
  8
2
 62
     4
  6
continuous
 10
76.515497422234063
 20
62.452038453415817
 40
1.25
 50
78.912510789029454
 51
101.08748921097055
  0
ARC
  8
2
 62
     4
  6
continuous
 10
76.723830755567406
 20
63.515151021930258
 40
0.16666666666666666
 50
0
 51
78.91251078903332
  0
ARC
  8
2
 62
     4
  6
continuous
 10
76.307164088900734
 20
63.515151021930258
 40
0.16666666666666666
 50
101.08748921097147
 51
180
  0
ARC
  8
2
 62
     4
  6
continuous
 10
79.015497422234063
 20
62.452038453415817
 40
1.25
 50
78.912510789029454
 51
101.08748921097055
  0
ARC
  8
2
 62
     4
  6
continuous
 10
79.223830755567363
 20
63.515151021930258
 40
0.16666666666666666
 50
0
 51
78.912510789028516
  0
ARC
  8
2
 62
     4
  6
continuous
 10
78.807164088900734
 20
63.515151021930258
 40
0.16666666666666666
 50
101.08748921097147
 51
180
  0
ARC
  8
2
 62
     4
  6
continuous
 10
76.348830755567377
 20
62.344488543145673
 40
0.19245008972987557
 50
210.0000000000031
 51
329.99999999999903
  0
ARC
  8
2
 62
     4
  6
continuous
 10
76.682164088900734
 20
62.344488543145673
 40
0.19245008972987548
 50
209.99999999999915
 51
330.00000000000085
  0
ARC
  8
2
 62
     4
  6
continuous
 10
78.848830755567377
 20
62.344488543145673
 40
0.19245008972987557
 50
210.0000000000031
 51
329.99999999999903
  0
ARC
  8
2
 62
     4
  6
continuous
 10
79.182164088900734
 20
62.344488543145673
 40
0.19245008972987548
 50
209.99999999999915
 51
330.00000000000085
  0
ARC
  8
2
 62
     3
  6
continuous
 10
243.49180481332667
 20
60.390054478699909
 40
1.25
 50
330.63228133903112
 51
346.2857668238882
  0
ARC
  8
2
 62
     3
  6
continuous
 10
251.42053045254332
 20
60.390054478699909
 40
1.25
 50
193.71423317611089
 51
209.36771866096856
  0
ARC
  8
2
 62
     3
  6
continuous
 10
244.74783429960161
 20
62.927038453415875
 40
0.41666666666666663
 50
90
 51
180
  0
ARC
  8
2
 62
     3
  6
continuous
 10
244.74783429960161
 20
62.843705120082547
 40
0.25
 50
90
 51
180
  0
ARC
  8
2
 62
     3
  6
continuous
 10
250.16450096626829
 20
62.843705120082547
 40
0.25
 50
0
 51
90
  0
ARC
  8
2
 62
     3
  6
continuous
 10
250.16450096626829
 20
62.927038453415875
 40
0.41666666666666663
 50
0
 51
90
  0
ARC
  8
2
 62
     4
  6
continuous
 10
246.08116763293458
 20
63.877038453415828
 40
1
 50
258.46304096718353
 51
281.53695903281488
  0
ARC
  8
2
 62
     4
  6
continuous
 10
245.91450096626789
 20
63.060541872488017
 40
0.16666666666666666
 50
180
 51
258.46304096718507
  0
ARC
  8
2
 62
     4
  6
continuous
 10
246.24783429960115
 20
63.060541872488017
 40
0.16666666666666666
 50
281.536959032825
 51
360
  0
ARC
  8
2
 62
     4
  6
continuous
 10
248.83116763293532
 20
63.877038453415828
 40
1
 50
258.46304096718512
 51
281.53695903281647
  0
ARC
  8
2
 62
     4
  6
continuous
 10
248.99783429960206
 20
63.060541872488017
 40
0.16666666666666666
 50
281.536959032825
 51
360
  0
ARC
  8
2
 62
     4
  6
continuous
 10
248.66450096626866
 20
63.060541872488017
 40
0.16666666666666666
 50
180
 51
258.46304096718507
  0
ARC
  8
2
 62
     4
  6
line_font21
 10
247.58116763293458
 20
64.03388862949231
 40
1.6666666666666665
 50
154.15806723683284
 51
180
  0
ARC
  8
2
 62
     4
  6
line_font21
 10
247.58116763293458
 20
64.180082108130676
 40
1.6083333333333329
 50
158.85055006530169
 51
180
  0
ARC
  8
2
 62
     4
  6
line_font21
 10
244.58116763293449
 20
64.03388862949231
 40
1.6666666666666665
 50
0
 51
25.841932763167165
  0
ARC
  8
2
 62
     4
  6
line_font21
 10
244.58116763293449
 20
64.180082108130676
 40
1.6083333333333329
 50
0
 51
21.149449934698808
  0
ARC
  8
2
 62
     4
  6
line_font21
 10
250.33116763293532
 20
64.180082108130676
 40
1.6083333333333329
 50
158.85055006530121
 51
180
  0
ARC
  8
2
 62
     4
  6
line_font21
 10
250.33116763293532
 20
64.03388862949231
 40
1.6666666666666665
 50
154.15806723683284
 51
180
  0
ARC
  8
2
 62
     4
  6
line_font21
 10
247.3311676329354
 20
64.03388862949231
 40
1.6666666666666665
 50
0
 51
25.841932763167165
  0
ARC
  8
2
 62
     4
  6
line_font21
 10
247.3311676329354
 20
64.180082108130676
 40
1.6083333333333329
 50
0
 51
21.149449934698335
  0
ARC
  8
2
 62
     6
  6
continuous
 10
207.34644661705968
 20
100.16755486977571
 40
0.25
 50
90
 51
180
  0
ARC
  8
2
 62
     6
  6
continuous
 10
214.59644661705977
 20
100.16755486977576
 40
0.25
 50
0
 51
90
  0
ARC
  8
2
 62
     6
  6
continuous
 10
214.59644661705977
 20
93.267554869775736
 40
0.25
 50
270
 51
360
  0
ARC
  8
2
 62
     6
  6
continuous
 10
214.88811328372643
 20
92.800888203109082
 40
0.25
 50
270
 51
360
  0
ARC
  8
2
 62
     6
  6
continuous
 10
214.88811328372643
 20
100.63422153644241
 40
0.25
 50
0
 51
90
  0
ARC
  8
2
 62
     6
  6
continuous
 10
207.05477995039308
 20
100.63422153644241
 40
0.25
 50
90
 51
180
  0
ARC
  8
2
 62
     6
  6
continuous
 10
207.05477995039308
 20
92.800888203109082
 40
0.25
 50
180
 51
270
  0
ARC
  8
2
 62
     6
  6
continuous
 10
207.34644661705977
 20
93.267554869775736
 40
0.25
 50
180
 51
270
  0
ARC
  8
2
 62
     3
  6
continuous
 10
81.10486024183713
 20
60.390054478697408
 40
1.25
 50
193.71423317625653
 51
209.3677186610397
  0
ARC
  8
2
 62
     3
  6
continuous
 10
80.057164088900791
 20
62.927038453415804
 40
0.41666666666666663
 50
0
 51
90
  0
ARC
  8
2
 62
     3
  6
continuous
 10
80.057164088900223
 20
62.84370512008266
 40
0.25
 50
0
 51
90.000000000003254
  0
ARC
  8
2
 62
     3
  6
continuous
 10
74.426134602631095
 20
60.390054478697408
 40
1.25
 50
330.6322813389603
 51
346.28576682374347
  0
ARC
  8
2
 62
     3
  6
continuous
 10
75.47383075556742
 20
62.927038453415804
 40
0.41666666666666663
 50
90
 51
180
  0
ARC
  8
2
 62
     3
  6
continuous
 10
75.473830755567988
 20
62.84370512008266
 40
0.25
 50
89.999999999996746
 51
179.99999999999838
  0
ARC
  8
2
 62
     4
  6
continuous
 10
152.38811328372663
 20
63.877038453416567
 40
1
 50
258.46304096718512
 51
281.53695903281647
  0
ARC
  8
2
 62
     4
  6
continuous
 10
152.22144661706
 20
63.060541872488734
 40
0.16666666666666666
 50
180
 51
258.463040967175
  0
ARC
  8
2
 62
     4
  6
continuous
 10
152.55477995039331
 20
63.060541872488734
 40
0.16666666666666666
 50
281.536959032825
 51
360
  0
ARC
  8
2
 62
     4
  6
continuous
 10
150.88811328372663
 20
64.180082108131415
 40
1.6083333333333329
 50
0
 51
21.149449934698808
  0
ARC
  8
2
 62
     4
  6
continuous
 10
150.88811328372663
 20
64.033888629493077
 40
1.6666666666666665
 50
0
 51
25.841932763167165
  0
ARC
  8
2
 62
     4
  6
continuous
 10
153.88811328372665
 20
64.180082108131415
 40
1.6083333333333329
 50
158.85055006530169
 51
180
  0
ARC
  8
2
 62
     4
  6
continuous
 10
153.88811328372665
 20
64.033888629493077
 40
1.6666666666666665
 50
154.15806723683284
 51
180
  0
ARC
  8
2
 62
     4
  6
continuous
 10
152.53503594417799
 20
98.610060940732424
 40
0.0625
 50
138.61146396651554
 51
318.61146396654254
  0
ARC
  8
2
 62
     4
  6
continuous
 10
152.24119062327722
 20
98.610060940732424
 40
0.0625
 50
221.38853603345746
 51
41.388536033457456
  0
ARC
  8
2
 62
     4
  6
continuous
 10
152.38811328372765
 20
98.739538453415634
 40
0.2583333333333333
 50
318.61146396654237
 51
9.2647963886509181
  0
ARC
  8
2
 62
     4
  6
continuous
 10
152.38811328372483
 20
98.739538453415634
 40
0.2583333333333333
 50
170.73520361134908
 51
221.3885360334576
  0
ARC
  8
2
 62
     4
  6
continuous
 10
152.38811328372765
 20
98.739538453415634
 40
0.2583333333333333
 50
170.73520361360721
 51
221.38853603345999
  0
ARC
  8
2
 62
     4
  6
continuous
 10
152.52144661706095
 20
95.989538453413061
 40
0.041666666666666664
 50
279.21596564832919
 51
80.78403435159052
  0
ARC
  8
2
 62
     4
  6
continuous
 10
152.25477995039427
 20
95.989538453413061
 40
0.041666666666666664
 50
99.215965638945192
 51
260.78403436240086
  0
ARC
  8
2
 62
     4
  6
continuous
 10
152.53503594417799
 20
96.119015966096242
 40
0.0625
 50
41.388536033447679
 51
221.38853603348446
  0
ARC
  8
2
 62
     4
  6
continuous
 10
152.24119062327722
 20
96.119015966096242
 40
0.0625
 50
318.61146396654254
 51
138.61146396655232
  0
ARC
  8
2
 62
     4
  6
continuous
 10
152.38811328372765
 20
95.989538453413061
 40
0.1333333333333333
 50
138.6114639665422
 51
155.4417875871741
  0
ARC
  8
2
 62
     4
  6
continuous
 10
152.38811328372765
 20
95.989538453413061
 40
0.1333333333333333
 50
24.558212410617863
 51
41.38853603345779
  0
ARC
  8
2
 62
     4
  6
continuous
 10
152.38811328372765
 20
95.989538453413061
 40
0.2583333333333333
 50
350.73520361135218
 51
41.388536033457633
  0
ARC
  8
2
 62
     4
  6
continuous
 10
152.38811328372483
 20
95.989538453413061
 40
0.2583333333333333
 50
138.61146396654237
 51
189.2647963886478
  0
ARC
  8
2
 62
     4
  6
continuous
 10
152.38811328372765
 20
95.989538453413061
 40
0.2583333333333333
 50
138.61146396654001
 51
189.26479638639279
  0
ARC
  8
2
 62
     4
  6
continuous
 10
149.59644661706088
 20
97.364538453413971
 40
3.4416666666651903
 50
335.25266971490038
 51
24.747330285110824
  0
ARC
  8
2
 62
     4
  6
continuous
 10
155.17977995039158
 20
97.364538453413971
 40
3.4416666666651903
 50
155.25266971488918
 51
204.74733028489868
  0
ARC
  8
2
 62
     4
  6
continuous
 10
152.09202683695472
 20
98.78783768774619
 40
0.041666666666666664
 50
350.73520361359317
 51
155.25266971509132
  0
ARC
  8
2
 62
     4
  6
continuous
 10
152.6841997304922
 20
98.787837687756806
 40
0.041666666666666664
 50
24.747330285152991
 51
189.26479638864279
  0
ARC
  8
2
 62
     4
  6
continuous
 10
152.38811328372765
 20
98.739538453415634
 40
0.1333333333333333
 50
318.6114639665422
 51
335.44178758937659
  0
ARC
  8
2
 62
     4
  6
continuous
 10
152.53212370040046
 20
98.67373234172527
 40
0.024999999999999998
 50
99.215965648433112
 51
155.44178758939802
  0
ARC
  8
2
 62
     4
  6
continuous
 10
152.52144661706095
 20
98.739538453415634
 40
0.041666666666666664
 50
279.21596564840951
 51
80.784034351670797
  0
ARC
  8
2
 62
     4
  6
continuous
 10
152.53212370040043
 20
98.805344565106012
 40
0.024999999999999998
 50
204.55821241065868
 51
260.78403435163119
  0
ARC
  8
2
 62
     4
  6
continuous
 10
152.38811328372765
 20
98.739538453415634
 40
0.1333333333333333
 50
24.558212410634049
 51
65.44178758879184
  0
ARC
  8
2
 62
     4
  6
continuous
 10
152.45391939541736
 20
98.883548870083075
 40
0.024999999999999998
 50
189.21596564387664
 51
245.44178758874298
  0
ARC
  8
2
 62
     4
  6
continuous
 10
152.38811328372765
 20
98.872871786748959
 40
0.041666666666666664
 50
9.21596564389578
 51
170.78403435632268
  0
ARC
  8
2
 62
     4
  6
continuous
 10
152.32230717203635
 20
98.883548870083075
 40
0.024999999999999998
 50
294.55821241168019
 51
350.78403435631623
  0
ARC
  8
2
 62
     4
  6
continuous
 10
152.38811328372765
 20
98.739538453415634
 40
0.1333333333333333
 50
114.55821241173277
 51
155.44178758402043
  0
ARC
  8
2
 62
     4
  6
continuous
 10
152.24410286706564
 20
98.805344565117309
 40
0.024999999999999998
 50
279.21596563761193
 51
335.4417875840341
  0
ARC
  8
2
 62
     4
  6
continuous
 10
152.25477995039427
 20
98.739538453415634
 40
0.041666666666666664
 50
99.215965637599112
 51
260.78403436105481
  0
ARC
  8
2
 62
     4
  6
continuous
 10
152.24410286706564
 20
98.673732341723522
 40
0.024999999999999998
 50
24.558212412817618
 51
80.784034361001289
  0
ARC
  8
2
 62
     4
  6
continuous
 10
152.38811328372765
 20
98.739538453415634
 40
0.1333333333333333
 50
204.5582124128259
 51
221.3885360334578
  0
ARC
  8
2
 62
     4
  6
continuous
 10
152.09202683695472
 20
95.941239219082462
 40
0.041666666666666664
 50
204.74733028490868
 51
9.264796386406811
  0
ARC
  8
2
 62
     4
  6
continuous
 10
152.6841997304922
 20
95.941239219071889
 40
0.041666666666666664
 50
170.73520361133791
 51
335.2526697148989
  0
ARC
  8
2
 62
     4
  6
continuous
 10
152.53212370040046
 20
96.055344565103439
 40
0.024999999999999998
 50
204.55821241063163
 51
260.78403435163119
  0
ARC
  8
2
 62
     4
  6
continuous
 10
152.24410286706564
 20
95.923732341711357
 40
0.024999999999999998
 50
24.558212415965862
 51
80.784034362388027
  0
ARC
  8
2
 62
     4
  6
continuous
 10
152.24410286706564
 20
96.055344565105173
 40
0.024999999999999998
 50
279.21596563899874
 51
335.44178758718238
  0
ARC
  8
2
 62
     4
  6
continuous
 10
152.53212370040043
 20
95.923732341722683
 40
0.024999999999999998
 50
99.215965648304532
 51
155.44178758934132
  0
ARC
  8
2
 62
     4
  6
continuous
 10
152.45391939541736
 20
95.845528036745634
 40
0.024999999999999998
 50
114.55821241125703
 51
170.78403435618762
  0
ARC
  8
2
 62
     4
  6
continuous
 10
152.38811328372765
 20
95.989538453413061
 40
0.1333333333333333
 50
294.55821241120816
 51
335.44178758937107
  0
ARC
  8
2
 62
     4
  6
continuous
 10
152.38811328372765
 20
95.856205120079693
 40
0.041666666666666664
 50
189.21596564365805
 51
350.78403435612347
  0
ARC
  8
2
 62
     4
  6
continuous
 10
152.38811328372765
 20
95.989538453413061
 40
0.1333333333333333
 50
204.55821241596843
 51
245.44178758826723
  0
ARC
  8
2
 62
     4
  6
continuous
 10
152.32230717203635
 20
95.845528036745591
 40
0.024999999999999998
 50
9.2159656436516197
 51
65.441787588319812
  0
ARC
  8
2
 62
     4
  6
continuous
 10
165.88811328372657
 20
63.877038453416567
 40
1
 50
258.46304096718512
 51
281.53695903281647
  0
ARC
  8
2
 62
     4
  6
continuous
 10
165.72144661705994
 20
63.060541872488734
 40
0.16666666666666666
 50
180
 51
258.463040967175
  0
ARC
  8
2
 62
     4
  6
continuous
 10
166.05477995039325
 20
63.060541872488734
 40
0.16666666666666666
 50
281.536959032825
 51
360
  0
ARC
  8
2
 62
     4
  6
continuous
 10
164.3881132837266
 20
64.180082108131415
 40
1.6083333333333329
 50
0
 51
21.149449934698808
  0
ARC
  8
2
 62
     4
  6
continuous
 10
164.3881132837266
 20
64.033888629493077
 40
1.6666666666666665
 50
0
 51
25.841932763167165
  0
ARC
  8
2
 62
     4
  6
continuous
 10
167.3881132837266
 20
64.180082108131415
 40
1.6083333333333329
 50
158.85055006530169
 51
180
  0
ARC
  8
2
 62
     4
  6
continuous
 10
167.3881132837266
 20
64.033888629493077
 40
1.6666666666666665
 50
154.15806723683284
 51
180
  0
ARC
  8
2
 62
     4
  6
continuous
 10
194.55477995039348
 20
63.877038453416532
 40
1
 50
258.46304096718353
 51
281.53695903281476
  0
ARC
  8
2
 62
     4
  6
continuous
 10
194.3881132837268
 20
63.060541872488734
 40
0.16666666666666666
 50
180
 51
258.46304096718507
  0
ARC
  8
2
 62
     4
  6
continuous
 10
194.72144661706014
 20
63.060541872488734
 40
0.16666666666666666
 50
281.53695903281493
 51
360
  0
ARC
  8
2
 62
     4
  6
continuous
 10
193.05477995039348
 20
64.180082108131373
 40
1.6083333333333329
 50
0
 51
21.149449934698808
  0
ARC
  8
2
 62
     4
  6
continuous
 10
193.05477995039348
 20
64.033888629493049
 40
1.6666666666666665
 50
0
 51
25.841932763167165
  0
ARC
  8
2
 62
     4
  6
continuous
 10
196.05477995039348
 20
64.180082108131373
 40
1.6083333333333329
 50
158.85055006530121
 51
180
  0
ARC
  8
2
 62
     4
  6
continuous
 10
196.05477995039348
 20
64.033888629493049
 40
1.6666666666666665
 50
154.15806723683284
 51
180
  0
ARC
  8
2
 62
     4
  6
continuous
 10
181.05477995039354
 20
63.877038453416567
 40
1
 50
258.46304096718512
 51
281.53695903281647
  0
ARC
  8
2
 62
     4
  6
continuous
 10
180.88811328372685
 20
63.060541872488734
 40
0.16666666666666666
 50
180
 51
258.463040967175
  0
ARC
  8
2
 62
     4
  6
continuous
 10
181.22144661706022
 20
63.060541872488734
 40
0.16666666666666666
 50
281.53695903281493
 51
360
  0
ARC
  8
2
 62
     4
  6
continuous
 10
179.55477995039351
 20
64.180082108131415
 40
1.6083333333333329
 50
0
 51
21.149449934698808
  0
ARC
  8
2
 62
     4
  6
continuous
 10
179.55477995039351
 20
64.033888629493077
 40
1.6666666666666665
 50
0
 51
25.841932763167165
  0
ARC
  8
2
 62
     4
  6
continuous
 10
182.55477995039354
 20
64.180082108131415
 40
1.6083333333333329
 50
158.85055006530169
 51
180
  0
ARC
  8
2
 62
     4
  6
continuous
 10
182.55477995039354
 20
64.033888629493077
 40
1.6666666666666665
 50
154.15806723683284
 51
180
  0
ARC
  8
2
 62
     4
  6
continuous
 10
119.55477995039345
 20
63.877038453416567
 40
1
 50
258.46304096718433
 51
281.53695903281647
  0
ARC
  8
2
 62
     4
  6
continuous
 10
119.3881132837268
 20
63.060541872488734
 40
0.16666666666666666
 50
180
 51
258.46304096718029
  0
ARC
  8
2
 62
     4
  6
continuous
 10
119.72144661706012
 20
63.060541872488734
 40
0.16666666666666666
 50
281.53695903281971
 51
360
  0
ARC
  8
2
 62
     4
  6
continuous
 10
118.05477995039345
 20
64.180082108131415
 40
1.6083333333333329
 50
0
 51
21.149449934698808
  0
ARC
  8
2
 62
     4
  6
continuous
 10
118.05477995039345
 20
64.033888629493077
 40
1.6666666666666665
 50
0
 51
25.841932763167165
  0
ARC
  8
2
 62
     4
  6
continuous
 10
121.05477995039345
 20
64.180082108131415
 40
1.6083333333333329
 50
158.85055006530169
 51
180
  0
ARC
  8
2
 62
     4
  6
continuous
 10
121.05477995039345
 20
64.033888629493077
 40
1.6666666666666665
 50
154.15806723683284
 51
180
  0
ARC
  8
2
 62
     4
  6
continuous
 10
227.38811328372688
 20
63.877038453416588
 40
1
 50
258.46304096718353
 51
281.53695903281647
  0
ARC
  8
2
 62
     4
  6
continuous
 10
227.22144661706022
 20
63.06054187248877
 40
0.16666666666666666
 50
180
 51
258.463040967175
  0
ARC
  8
2
 62
     4
  6
continuous
 10
227.55477995039354
 20
63.06054187248877
 40
0.16666666666666666
 50
281.536959032825
 51
360
  0
ARC
  8
2
 62
     4
  6
continuous
 10
225.88811328372688
 20
64.18008210813143
 40
1.6083333333333329
 50
0
 51
21.149449934698808
  0
ARC
  8
2
 62
     4
  6
continuous
 10
225.88811328372688
 20
64.033888629493077
 40
1.6666666666666665
 50
0
 51
25.841932763167165
  0
ARC
  8
2
 62
     4
  6
continuous
 10
228.88811328372688
 20
64.18008210813143
 40
1.6083333333333329
 50
158.85055006530121
 51
180
  0
ARC
  8
2
 62
     4
  6
continuous
 10
228.88811328372688
 20
64.033888629493077
 40
1.6666666666666665
 50
154.15806723683284
 51
180
  0
ARC
  8
2
 62
     7
  6
continuous
 10
84.182164088901203
 20
34.843705120082497
 40
0.25
 50
0
 51
90
  0
ARC
  8
2
 62
     7
  6
continuous
 10
82.182164088901175
 20
39.343705120082497
 40
0.25
 50
0
 51
90
  0
ARC
  8
2
 62
     7
  6
continuous
 10
82.932164088901175
 20
35.593705120082497
 40
0.5
 50
180
 51
270
  0
ARC
  8
2
 62
     4
  6
continuous
 10
72.332164088900939
 20
38.376397190533581
 40
0.33333333333333359
 50
120.00000000000082
 51
239.99999999999918
  0
ARC
  8
2
 62
     4
  6
continuous
 10
73.082164088900939
 20
37.510371786749161
 40
1.0833333333333348
 50
147.79577249602792
 51
212.20422750397174
  0
ARC
  8
2
 62
     4
  6
continuous
 10
72.332164088900925
 20
36.644346382964706
 40
0.33333333333333331
 50
120.00000000000085
 51
239.99999999999918
  0
ARC
  8
2
 62
     4
  6
continuous
 10
83.44883075556794
 20
38.376397190533581
 40
0.33333333333333359
 50
299.99999999999812
 51
60.00000000000189
  0
ARC
  8
2
 62
     4
  6
continuous
 10
82.698830755567911
 20
37.510371786749161
 40
1.0833333333333348
 50
327.79577249602823
 51
32.204227503972078
  0
ARC
  8
2
 62
     4
  6
continuous
 10
83.44883075556794
 20
36.644346382964706
 40
0.33333333333333331
 50
299.99999999999812
 51
60.00000000000189
  0
ARC
  8
2
 62
     7
  6
continuous
 10
72.598830755567576
 20
35.593705120082497
 40
0.5
 50
270
 51
360
  0
ARC
  8
2
 62
     7
  6
continuous
 10
71.34883075556759
 20
34.843705120082497
 40
0.25
 50
90
 51
179.9999999998974
  0
ARC
  8
2
 62
     7
  6
continuous
 10
73.34883075556759
 20
39.343705120082497
 40
0.25
 50
90.000000000016286
 51
179.99999999999838
  0
ARC
  8
2
 62
     2
  6
continuous
 10
119.74314800594853
 20
35.989538453415847
 40
0.27170138888888767
 50
94.581220085279469
 51
265.41877991472052
  0
ARC
  8
2
 62
     2
  6
continuous
 10
119.69974522817076
 20
36.531205120082518
 40
0.27170138888889012
 50
274.58122008528233
 51
85.418779914720659
  0
ARC
  8
2
 62
     2
  6
continuous
 10
119.87862795534676
 20
36.425263399085296
 40
0.40824675708632779
 50
112.64470389125552
 51
216.63430308081661
  0
ARC
  8
2
 62
     2
  6
continuous
 10
128.03307856150408
 20
36.531205120082518
 40
0.27170138888888767
 50
274.58122008527636
 51
85.418779914723643
  0
ARC
  8
2
 62
     2
  6
continuous
 10
128.07648133928186
 20
35.989538453415847
 40
0.27170138888889012
 50
94.581220085282339
 51
265.41877991472364
  0
ARC
  8
2
 62
     2
  6
continuous
 10
127.89759861210587
 20
36.095480174413026
 40
0.40824675708632779
 50
292.64470389125108
 51
36.634303080816615
  0
ARC
  8
2
 62
     2
  6
continuous
 10
143.49314800594857
 20
35.989538453415847
 40
0.27170138888888767
 50
94.581220085282453
 51
265.41877991471756
  0
ARC
  8
2
 62
     2
  6
continuous
 10
143.44974522817071
 20
36.531205120082518
 40
0.27170138888889012
 50
274.58122008528233
 51
85.418779914723643
  0
ARC
  8
2
 62
     2
  6
continuous
 10
143.62862795534676
 20
36.425263399085296
 40
0.40824675708632779
 50
112.64470389125552
 51
216.63430308081661
  0
ARC
  8
2
 62
     2
  6
continuous
 10
151.78307856150408
 20
36.531205120082518
 40
0.27170138888888767
 50
274.58122008527636
 51
85.418779914723643
  0
ARC
  8
2
 62
     2
  6
continuous
 10
151.82648133928188
 20
35.989538453415847
 40
0.27170138888889012
 50
94.581220085282339
 51
265.41877991472364
  0
ARC
  8
2
 62
     2
  6
continuous
 10
151.64759861210587
 20
36.095480174413026
 40
0.40824675708632779
 50
292.64470389125108
 51
36.634303080816615
  0
ARC
  8
2
 62
     6
  6
continuous
 10
62.444021805671959
 20
45.665202522357561
 40
2.0020314453049246
 50
227.78511300435406
 51
314.32884630765562
  0
ARC
  8
2
 62
     6
  6
continuous
 10
62.444021805671959
 20
43.78368478165595
 40
2.0020314453049246
 50
227.78511300435406
 51
314.32884630765562
  0
ARC
  8
2
 62
     6
  6
continuous
 10
93.033193521160314
 20
42.75030268318276
 40
2.0020314453049246
 50
45.671153692344113
 51
132.21488699564577
  0
ARC
  8
2
 62
     6
  6
continuous
 10
93.033193521160342
 20
40.868784942481149
 40
2.0020314453049246
 50
45.671153692344546
 51
132.2148869956462
  0
ARC
  8
2
 62
     3
  6
continuous
 10
82.432164088900933
 20
126.92703845341586
 40
0.16666666666666666
 50
0
 51
90
  0
ARC
  8
2
 62
     3
  6
continuous
 10
73.098830755567462
 20
126.92703845341586
 40
0.16666666666666666
 50
90
 51
180
  0
ARC
  8
2
 62
     3
  6
continuous
 10
72.848830755567505
 20
124.67703845341583
 40
0.083333333333330956
 50
179.99999999999022
 51
360
  0
ARC
  8
2
 62
     3
  6
continuous
 10
82.682164088900876
 20
124.67703845341583
 40
0.083333333333319118
 50
179.99999999999022
 51
360
  0
ARC
  8
2
 62
     3
  6
continuous
 10
74.098830755567505
 20
127.38537178674916
 40
0.083333333333333329
 50
0
 51
90
  0
ARC
  8
2
 62
     3
  6
continuous
 10
82.432164088900933
 20
127.5103717867492
 40
0.16666666666666666
 50
270
 51
360
  0
ARC
  8
2
 62
     3
  6
continuous
 10
74.098830755567505
 20
127.17703845341583
 40
0.083333333333333329
 50
270
 51
360
  0
ARC
  8
2
 62
     3
  6
continuous
 10
73.098830755567462
 20
127.5103717867492
 40
0.16666666666666666
 50
180.00000000000978
 51
270
  0
ARC
  8
2
 62
     3
  6
continuous
 10
81.432164088900819
 20
127.38537178674916
 40
0.083333333333333329
 50
90
 51
180.00000000000978
  0
ARC
  8
2
 62
     3
  6
continuous
 10
81.432164088900819
 20
127.17703845341583
 40
0.083333333333333329
 50
180.00000000005863
 51
270
  0
ARC
  8
2
 62
     3
  6
continuous
 10
81.515497422234176
 20
129.00269334558129
 40
1.25
 50
0
 51
84.676239519051705
  0
ARC
  8
2
 62
     3
  6
continuous
 10
77.765497422234176
 20
88.760371786749204
 40
41.666666666666664
 50
84.676239519051506
 51
95.323760480948494
  0
ARC
  8
2
 62
     3
  6
continuous
 10
77.765497422234176
 20
88.760371786749204
 40
41.5
 50
84.676239519051563
 51
95.323760480948522
  0
ARC
  8
2
 62
     3
  6
continuous
 10
81.515497422234176
 20
129.00269334558129
 40
1.0833333333333333
 50
0
 51
84.676239519053539
  0
ARC
  8
2
 62
     3
  6
continuous
 10
74.015497422234176
 20
129.00269334558129
 40
1.0833333333333333
 50
95.323760480950355
 51
180.00000000000301
  0
ARC
  8
2
 62
     3
  6
continuous
 10
74.015497422234176
 20
129.00269334558129
 40
1.25
 50
95.323760480948948
 51
180
  0
ARC
  8
2
 62
     7
  6
continuous
 10
81.515497422234077
 20
129.00269334558152
 40
0.875
 50
0
 51
84.676239519052587
  0
ARC
  8
2
 62
     7
  6
continuous
 10
77.765497422234077
 20
88.760371786749459
 40
41.291666666666664
 50
84.676239519051521
 51
95.323760480948479
  0
ARC
  8
2
 62
     7
  6
continuous
 10
74.015497422234077
 20
129.00269334558152
 40
0.875
 50
95.323760480948366
 51
180
  0
ARC
  8
2
 62
     7
  6
continuous
 10
77.765497422234077
 20
88.760371786749459
 40
41.125
 50
84.676239519051535
 51
95.323760480948479
  0
ARC
  8
2
 62
     7
  6
continuous
 10
81.515497422234077
 20
129.00269334558152
 40
0.70833333333333326
 50
0
 51
84.676239519051919
  0
ARC
  8
2
 62
     7
  6
continuous
 10
74.015497422234077
 20
129.00269334558152
 40
0.70833333333333326
 50
95.323760480948081
 51
180
  0
ARC
  8
2
 62
     7
  6
continuous
 10
82.05716408890072
 20
127.42703845341613
 40
0.083333333333333329
 50
0
 51
90
  0
ARC
  8
2
 62
     7
  6
continuous
 10
80.390497422234063
 20
127.42703845341613
 40
0.083333333333333329
 50
90
 51
180
  0
ARC
  8
2
 62
     7
  6
continuous
 10
81.6967829622794
 20
127.96870512008283
 40
0.16666666666666666
 50
210.00000000000415
 51
270
  0
ARC
  8
2
 62
     7
  6
continuous
 10
82.057164088900763
 20
127.96870512008283
 40
0.16666666666666666
 50
270
 51
360
  0
ARC
  8
2
 62
     7
  6
continuous
 10
81.384051566468187
 20
128.01037178674943
 40
0.083333333333333329
 50
29.999999999993275
 51
90
  0
ARC
  8
2
 62
     7
  6
continuous
 10
80.313609944666524
 20
128.01037178674943
 40
0.083333333333333329
 50
90
 51
150.00000000000674
  0
ARC
  8
2
 62
     7
  6
continuous
 10
73.18216408890072
 20
127.38537178674939
 40
0.041666666666666664
 50
180
 51
270
  0
ARC
  8
2
 62
     7
  6
continuous
 10
73.348830755567604
 20
127.38537178674939
 40
0.041666666666666664
 50
269.99999999996089
 51
360
  0
ARC
  8
2
 62
     7
  6
continuous
 10
73.473830755567434
 20
127.42703845341613
 40
0.083333333333333329
 50
90
 51
180.00000000026381
  0
ARC
  8
2
 62
     7
  6
continuous
 10
75.265497422234034
 20
127.13537178674939
 40
0.041666666666666664
 50
180
 51
269.99999999996089
  0
ARC
  8
2
 62
     7
  6
continuous
 10
75.473830755567349
 20
127.13537178674932
 40
0.041666666666666664
 50
269.99999999998045
 51
360
  0
ARC
  8
2
 62
     7
  6
continuous
 10
80.057164088900876
 20
127.13537178674939
 40
0.041666666666666664
 50
180
 51
269.99999999998045
  0
ARC
  8
2
 62
     7
  6
continuous
 10
80.265497422234077
 20
127.13537178674946
 40
0.041666666666666664
 50
270.00000000001955
 51
360
  0
ARC
  8
2
 62
     7
  6
continuous
 10
82.348830755567349
 20
127.3853717867495
 40
0.041666666666666664
 50
270
 51
360
  0
ARC
  8
2
 62
     7
  6
continuous
 10
82.182164088900706
 20
127.3853717867495
 40
0.041666666666666664
 50
180.00000000017587
 51
270.00000000013677
  0
ARC
  8
2
 62
     7
  6
continuous
 10
74.14694327799991
 20
128.01037178674943
 40
0.083333333333333329
 50
90
 51
150.00000000000674
  0
ARC
  8
2
 62
     7
  6
continuous
 10
75.217384899801601
 20
128.01037178674943
 40
0.083333333333333329
 50
29.999999999993275
 51
90
  0
ARC
  8
2
 62
     7
  6
continuous
 10
73.83421188218874
 20
127.96870512008283
 40
0.16666666666666666
 50
270
 51
329.99999999997402
  0
ARC
  8
2
 62
     7
  6
continuous
 10
73.473830755567377
 20
127.96870512008283
 40
0.16666666666666666
 50
180
 51
270
  0
ARC
  8
2
 62
     7
  6
continuous
 10
75.140497422234063
 20
127.42703845341613
 40
0.083333333333333329
 50
0
 51
90
  0
ARC
  8
2
 62
     4
  6
continuous
 10
81.119664088912813
 20
126.23143651589284
 40
0.31273139581104731
 50
210.00000000000114
 51
329.99999999999886
  0
ARC
  8
2
 62
     4
  6
continuous
 10
80.577997422246114
 20
126.23143651589284
 40
0.31273139581104747
 50
210.00000000000114
 51
329.99999999999886
  0
ARC
  8
2
 62
     4
  6
continuous
 10
74.952997422236351
 20
126.23143651590114
 40
0.31273139581104731
 50
210.00000000000114
 51
329.99999999999886
  0
ARC
  8
2
 62
     4
  6
continuous
 10
74.411330755569708
 20
126.23143651590114
 40
0.31273139581104747
 50
210.00000000000114
 51
329.99999999999886
  0
ARC
  8
2
 62
     3
  6
continuous
 10
252.12283429960178
 20
126.9270384534159
 40
0.16666666666666666
 50
0
 51
90
  0
ARC
  8
2
 62
     3
  6
continuous
 10
242.78950096626829
 20
126.9270384534159
 40
0.16666666666666666
 50
90
 51
180
  0
ARC
  8
2
 62
     3
  6
continuous
 10
242.53950096626835
 20
124.67703845341586
 40
0.083333333333330956
 50
179.99999999998045
 51
360
  0
ARC
  8
2
 62
     3
  6
continuous
 10
252.37283429960169
 20
124.67703845341586
 40
0.083333333333319118
 50
179.99999999998045
 51
360
  0
ARC
  8
2
 62
     3
  6
continuous
 10
243.78950096626829
 20
127.3853717867492
 40
0.083333333333333329
 50
0
 51
90
  0
ARC
  8
2
 62
     3
  6
continuous
 10
252.12283429960178
 20
127.5103717867492
 40
0.16666666666666666
 50
270
 51
360
  0
ARC
  8
2
 62
     3
  6
continuous
 10
243.78950096626829
 20
127.17703845341586
 40
0.083333333333333329
 50
270
 51
360
  0
ARC
  8
2
 62
     3
  6
continuous
 10
242.78950096626829
 20
127.5103717867492
 40
0.16666666666666666
 50
180.00000000000978
 51
270
  0
ARC
  8
2
 62
     3
  6
continuous
 10
251.12283429960169
 20
127.3853717867492
 40
0.083333333333333329
 50
90
 51
180.00000000001955
  0
ARC
  8
2
 62
     3
  6
continuous
 10
251.12283429960169
 20
127.17703845341586
 40
0.083333333333333329
 50
180.00000000004886
 51
270
  0
ARC
  8
2
 62
     3
  6
continuous
 10
251.20616763293503
 20
129.00269334558135
 40
1.25
 50
0
 51
84.676239519052359
  0
ARC
  8
2
 62
     3
  6
continuous
 10
247.45616763293503
 20
88.760371786749204
 40
41.666666666666664
 50
84.676239519051506
 51
95.323760480948536
  0
ARC
  8
2
 62
     3
  6
continuous
 10
247.45616763293503
 20
88.760371786749204
 40
41.5
 50
84.676239519051606
 51
95.323760480948479
  0
ARC
  8
2
 62
     3
  6
continuous
 10
251.20616763293503
 20
129.00269334558135
 40
1.0833333333333333
 50
0
 51
84.676239519054292
  0
ARC
  8
2
 62
     3
  6
continuous
 10
243.70616763293503
 20
129.00269334558135
 40
1.0833333333333333
 50
95.323760480951847
 51
180.00000000000301
  0
ARC
  8
2
 62
     3
  6
continuous
 10
243.70616763293503
 20
129.00269334558135
 40
1.25
 50
95.323760480948948
 51
180
  0
ARC
  8
2
 62
     2
  6
continuous
 10
242.95616763293245
 20
127.01037178674923
 40
0.083333333333333329
 50
89.99999999998046
 51
180.00000000087937
  0
ARC
  8
2
 62
     2
  6
continuous
 10
242.95616763293623
 20
126.96870512008253
 40
0.083333333333333329
 50
180
 51
270
  0
ARC
  8
2
 62
     2
  6
continuous
 10
244.45616763293486
 20
126.80203845341583
 40
0.083333333333333329
 50
0
 51
90
  0
ARC
  8
2
 62
     2
  6
continuous
 10
244.66450096626829
 20
127.01037178674905
 40
0.083333333333333329
 50
0
 51
90
  0
ARC
  8
2
 62
     2
  6
continuous
 10
244.62283429960146
 20
125.51037178674923
 40
0.083333333333333329
 50
180
 51
270
  0
ARC
  8
2
 62
     2
  6
continuous
 10
244.83116763293509
 20
125.71870512008269
 40
0.083333333333333329
 50
180
 51
270
  0
ARC
  8
2
 62
     2
  6
continuous
 10
250.28950096626843
 20
125.51037178674923
 40
0.083333333333333329
 50
270
 51
360
  0
ARC
  8
2
 62
     2
  6
continuous
 10
250.08116763293481
 20
125.71870512008257
 40
0.083333333333333329
 50
270
 51
360
  0
ARC
  8
2
 62
     2
  6
continuous
 10
250.24783429960161
 20
127.01037178674927
 40
0.083333333333333329
 50
90
 51
180
  0
ARC
  8
2
 62
     2
  6
continuous
 10
250.45616763293449
 20
126.80203845341561
 40
0.083333333333333329
 50
90
 51
180.00000000001955
  0
ARC
  8
2
 62
     2
  6
continuous
 10
251.95616763292981
 20
126.9687051200826
 40
0.083333333333333329
 50
270
 51
360
  0
ARC
  8
2
 62
     2
  6
continuous
 10
251.95616763293418
 20
127.01037178674946
 40
0.083333333333333329
 50
0
 51
90
  0
ARC
  8
2
 62
     4
  6
continuous
 10
246.08116763293481
 20
124.85203845341586
 40
1
 50
78.463040967185222
 51
101.53695903281655
  0
ARC
  8
2
 62
     4
  6
continuous
 10
245.91450096626812
 20
125.66853503434365
 40
0.16666666666666666
 50
101.53695903281495
 51
180
  0
ARC
  8
2
 62
     4
  6
continuous
 10
246.24783429960146
 20
125.66853503434365
 40
0.16666666666666666
 50
0
 51
78.463040967185051
  0
ARC
  8
2
 62
     4
  6
continuous
 10
248.83116763295769
 20
124.85203845341454
 40
1
 50
78.46304096718346
 51
101.53695903281655
  0
ARC
  8
2
 62
     4
  6
continuous
 10
248.66450096629103
 20
125.66853503434233
 40
0.16666666666666666
 50
101.53695903282453
 51
180
  0
ARC
  8
2
 62
     4
  6
continuous
 10
248.99783429962434
 20
125.66853503434233
 40
0.16666666666666666
 50
0
 51
78.463040967175488
  0
ARC
  8
2
 62
     4
  6
line_font21
 10
247.58116763293481
 20
124.54899479870102
 40
1.6083333333333329
 50
180
 51
201.14944993469928
  0
ARC
  8
2
 62
     4
  6
line_font21
 10
247.58116763293481
 20
124.69518827733935
 40
1.6666666666666665
 50
180
 51
205.84193276316714
  0
ARC
  8
2
 62
     4
  6
line_font21
 10
244.58116763293481
 20
124.69518827733935
 40
1.6666666666666665
 50
334.15806723683284
 51
360
  0
ARC
  8
2
 62
     4
  6
line_font21
 10
244.58116763293481
 20
124.54899479870102
 40
1.6083333333333329
 50
338.85055006530075
 51
360
  0
ARC
  8
2
 62
     4
  6
line_font21
 10
247.33116763295769
 20
124.54899479869968
 40
1.6083333333333329
 50
338.85055006530121
 51
360
  0
ARC
  8
2
 62
     4
  6
line_font21
 10
247.33116763295769
 20
124.69518827733802
 40
1.6666666666666665
 50
334.15806723683284
 51
360
  0
ARC
  8
2
 62
     4
  6
line_font21
 10
250.33116763295769
 20
124.54899479869968
 40
1.6083333333333329
 50
180
 51
201.14944993469879
  0
ARC
  8
2
 62
     4
  6
line_font21
 10
250.33116763295769
 20
124.69518827733802
 40
1.6666666666666665
 50
180
 51
205.84193276316714
  0
ARC
  8
2
 62
     4
  6
continuous
 10
244.12283429960138
 20
127.58417359694414
 40
0.83333333333333326
 50
138.59037789072929
 51
180
  0
ARC
  8
2
 62
     4
  6
continuous
 10
242.87283429960138
 20
127.58417359694414
 40
0.83333333333333326
 50
0
 51
41.409622109270721
  0
ARC
  8
2
 62
     4
  6
continuous
 10
244.12283429960138
 20
127.69135289325733
 40
0.76666666666666661
 50
144.60886272048623
 51
180.00001187859021
  0
ARC
  8
2
 62
     4
  6
continuous
 10
242.87283429960138
 20
127.69135289325733
 40
0.76666666666666661
 50
0
 51
35.391137279513785
  0
ARC
  8
2
 62
     4
  6
continuous
 10
252.0395009662673
 20
127.58417359694417
 40
0.83333333333333326
 50
138.59037789072929
 51
180
  0
ARC
  8
2
 62
     4
  6
continuous
 10
250.78950096626738
 20
127.58417359694417
 40
0.83333333333333326
 50
0
 51
41.409622109270721
  0
ARC
  8
2
 62
     4
  6
continuous
 10
252.0395009662673
 20
127.69135289325737
 40
0.76666666666666661
 50
144.60886272048711
 51
180.00001187859021
  0
ARC
  8
2
 62
     4
  6
continuous
 10
250.78950096626738
 20
127.69135289325737
 40
0.76666666666666661
 50
0
 51
35.391137279512918
  0
ARC
  8
2
 62
     4
  6
continuous
 10
243.49783429960138
 20
127.77703845341593
 40
1.25
 50
258.91251078903088
 51
281.08748921097055
  0
ARC
  8
2
 62
     4
  6
continuous
 10
243.28950096626806
 20
126.7139258849015
 40
0.16666666666666666
 50
180
 51
258.91251078903377
  0
ARC
  8
2
 62
     4
  6
continuous
 10
243.70616763293472
 20
126.7139258849015
 40
0.16666666666666666
 50
281.08748921096617
 51
360
  0
ARC
  8
2
 62
     4
  6
continuous
 10
251.4145009662673
 20
127.77703845341597
 40
1.25
 50
258.91251078902945
 51
281.08748921097055
  0
ARC
  8
2
 62
     4
  6
continuous
 10
251.20616763293395
 20
126.7139258849015
 40
0.16666666666666666
 50
180
 51
258.91251078903377
  0
ARC
  8
2
 62
     4
  6
continuous
 10
251.62283429960064
 20
126.7139258849015
 40
0.16666666666666666
 50
281.08748921096617
 51
360
  0
ARC
  8
2
 62
     4
  6
continuous
 10
131.22700217261308
 20
124.22946888046533
 40
0.18055555555555519
 50
119.99999999999754
 51
240.00000000000242
  0
ARC
  8
2
 62
     4
  6
continuous
 10
131.63325217261308
 20
123.76037178674876
 40
0.58680555555555436
 50
147.7957724960269
 51
212.2042275039731
  0
ARC
  8
2
 62
     4
  6
continuous
 10
131.22700217261308
 20
123.29127469303219
 40
0.18055555555555605
 50
119.99999999999754
 51
240.00000000000242
  0
ARC
  8
2
 62
     4
  6
continuous
 10
140.71589106150623
 20
124.22946888046533
 40
0.18055555555555519
 50
299.99999999999756
 51
60.000000000002451
  0
ARC
  8
2
 62
     4
  6
continuous
 10
140.30964106150617
 20
123.76037178674876
 40
0.58680555555555436
 50
327.79577249602687
 51
32.204227503973101
  0
ARC
  8
2
 62
     4
  6
continuous
 10
140.71589106150623
 20
123.29127469303219
 40
0.18055555555555605
 50
299.99999999999756
 51
60.000000000002451
  0
ARC
  8
2
 62
     7
  6
continuous
 10
136.28686328372663
 20
123.7603717867491
 40
3.7500000000000004
 50
128.94363426315371
 51
229.99999999999989
  0
ARC
  8
2
 62
     7
  6
continuous
 10
136.28686328372663
 20
123.7603717867491
 40
4.166666666666667
 50
140.60853590266382
 51
230.00000000000034
  0
ARC
  8
2
 62
     7
  6
continuous
 10
132.93794140082497
 20
126.5103717867491
 40
0.16666666666666666
 50
320.60853590266726
 51
90
  0
ARC
  8
2
 62
     4
  6
continuous
 10
129.54401619001032
 20
126.09926067563799
 40
0.18055555555555519
 50
209.99999999999756
 51
330.00000000000244
  0
ARC
  8
2
 62
     4
  6
continuous
 10
130.01311328372691
 20
126.50551067563799
 40
0.58680555555555436
 50
237.79577249602687
 51
302.20422750397
  0
ARC
  8
2
 62
     4
  6
continuous
 10
130.48221037744347
 20
126.09926067563799
 40
0.18055555555555605
 50
209.99999999999756
 51
330.00000000000244
  0
ARC
  8
2
 62
     7
  6
continuous
 10
135.65602995039302
 20
123.76037178674881
 40
3.7500000000000004
 50
309.99999999999994
 51
51.056365736846288
  0
ARC
  8
2
 62
     7
  6
continuous
 10
135.65602995039302
 20
123.76037178674881
 40
4.166666666666667
 50
309.99999999999966
 51
39.391464097336183
  0
ARC
  8
2
 62
     7
  6
continuous
 10
139.00495183329471
 20
126.51037178674881
 40
0.16666666666666666
 50
90
 51
219.39146409733274
  0
ARC
  8
2
 62
     4
  6
continuous
 10
141.46068285667707
 20
126.09926067563765
 40
0.18055555555555519
 50
209.99999999999756
 51
330.00000000000244
  0
ARC
  8
2
 62
     4
  6
continuous
 10
141.92977995039368
 20
126.50551067563765
 40
0.58680555555555436
 50
237.79577249602687
 51
302.20422750397
  0
ARC
  8
2
 62
     4
  6
continuous
 10
142.39887704411024
 20
126.09926067563765
 40
0.18055555555555605
 50
209.99999999999756
 51
330.00000000000244
  0
ARC
  8
2
 62
     4
  6
continuous
 10
158.51311328372617
 20
127.5841735969442
 40
0.83333333333333326
 50
138.59037789072929
 51
180
  0
ARC
  8
2
 62
     4
  6
continuous
 10
157.26311328372617
 20
127.5841735969442
 40
0.83333333333333326
 50
0
 51
41.409622109270721
  0
ARC
  8
2
 62
     4
  6
continuous
 10
158.51311328372617
 20
127.69135289325739
 40
0.76666666666666661
 50
144.60886272048623
 51
180.00001187859021
  0
ARC
  8
2
 62
     4
  6
continuous
 10
157.26311328372617
 20
127.69135289325739
 40
0.76666666666666661
 50
0
 51
35.391137279513785
  0
ARC
  8
2
 62
     4
  6
line_font21
 10
157.88811328372617
 20
127.77703845341598
 40
1.25
 50
258.91251078902945
 51
281.08748921097185
  0
ARC
  8
2
 62
     4
  6
line_font21
 10
157.67977995039286
 20
126.71392588490156
 40
0.16666666666666666
 50
180
 51
258.91251078902326
  0
ARC
  8
2
 62
     4
  6
line_font21
 10
158.09644661705951
 20
126.71392588490156
 40
0.16666666666666666
 50
281.08748921097674
 51
360
  0
ARC
  8
2
 62
     4
  6
continuous
 10
152.38811328372668
 20
124.93537178674876
 40
1
 50
78.46304096718346
 51
101.53695903281478
  0
ARC
  8
2
 62
     4
  6
continuous
 10
152.22144661706002
 20
125.75186836767655
 40
0.16666666666666666
 50
101.53695903281495
 51
180
  0
ARC
  8
2
 62
     4
  6
continuous
 10
152.55477995039331
 20
125.75186836767655
 40
0.16666666666666666
 50
0
 51
78.463040967175488
  0
ARC
  8
2
 62
     4
  6
continuous
 10
150.88811328372665
 20
124.6323281320339
 40
1.6083333333333329
 50
338.85055006530121
 51
360
  0
ARC
  8
2
 62
     4
  6
continuous
 10
150.88811328372665
 20
124.77852161067224
 40
1.6666666666666665
 50
334.15806723683284
 51
360
  0
ARC
  8
2
 62
     4
  6
continuous
 10
153.88811328372668
 20
124.6323281320339
 40
1.6083333333333329
 50
180
 51
201.14944993469879
  0
ARC
  8
2
 62
     4
  6
continuous
 10
153.88811328372668
 20
124.77852161067224
 40
1.6666666666666665
 50
180
 51
205.84193276316714
  0
ARC
  8
2
 62
     4
  6
continuous
 10
165.88811328372663
 20
124.93537178674876
 40
1
 50
78.46304096718346
 51
101.53695903281478
  0
ARC
  8
2
 62
     4
  6
continuous
 10
165.72144661706002
 20
125.75186836767655
 40
0.16666666666666666
 50
101.53695903281495
 51
180
  0
ARC
  8
2
 62
     4
  6
continuous
 10
166.05477995039328
 20
125.75186836767655
 40
0.16666666666666666
 50
0
 51
78.463040967185051
  0
ARC
  8
2
 62
     4
  6
continuous
 10
164.38811328372663
 20
124.6323281320339
 40
1.6083333333333329
 50
338.85055006530121
 51
360
  0
ARC
  8
2
 62
     4
  6
continuous
 10
164.38811328372663
 20
124.77852161067224
 40
1.6666666666666665
 50
334.15806723683284
 51
360
  0
ARC
  8
2
 62
     4
  6
continuous
 10
167.38811328372668
 20
124.6323281320339
 40
1.6083333333333329
 50
180
 51
201.14944993469879
  0
ARC
  8
2
 62
     4
  6
continuous
 10
167.38811328372668
 20
124.77852161067224
 40
1.6666666666666665
 50
180
 51
205.84193276316714
  0
ARC
  8
2
 62
     4
  6
continuous
 10
194.55477995039348
 20
124.93537178674868
 40
1
 50
78.463040967185222
 51
101.53695903281655
  0
ARC
  8
2
 62
     4
  6
continuous
 10
194.38811328372688
 20
125.75186836767648
 40
0.16666666666666666
 50
101.53695903281495
 51
180
  0
ARC
  8
2
 62
     4
  6
continuous
 10
194.72144661706014
 20
125.75186836767648
 40
0.16666666666666666
 50
0
 51
78.463040967185051
  0
ARC
  8
2
 62
     4
  6
continuous
 10
193.05477995039348
 20
124.63232813203383
 40
1.6083333333333329
 50
338.85055006530121
 51
360
  0
ARC
  8
2
 62
     4
  6
continuous
 10
193.05477995039348
 20
124.77852161067221
 40
1.6666666666666665
 50
334.15806723683284
 51
360
  0
ARC
  8
2
 62
     4
  6
continuous
 10
196.05477995039354
 20
124.63232813203383
 40
1.6083333333333329
 50
180
 51
201.14944993469879
  0
ARC
  8
2
 62
     4
  6
continuous
 10
196.05477995039354
 20
124.77852161067221
 40
1.6666666666666665
 50
180
 51
205.84193276316714
  0
ARC
  8
2
 62
     4
  6
continuous
 10
189.51311328372665
 20
127.5841735969442
 40
0.83333333333333326
 50
0
 51
41.409622109270721
  0
ARC
  8
2
 62
     4
  6
continuous
 10
190.76311328372665
 20
127.5841735969442
 40
0.83333333333333326
 50
138.59037789072929
 51
180
  0
ARC
  8
2
 62
     4
  6
continuous
 10
189.51311328372665
 20
127.69135289325739
 40
0.76666666666666661
 50
0
 51
35.391137279513785
  0
ARC
  8
2
 62
     4
  6
continuous
 10
190.76311328372665
 20
127.69135289325739
 40
0.76666666666666661
 50
144.60886272048623
 51
180
  0
ARC
  8
2
 62
     4
  6
line_font21
 10
190.13811328372665
 20
127.77703845341598
 40
1.25
 50
258.91251078902945
 51
281.08748921097055
  0
ARC
  8
2
 62
     4
  6
line_font21
 10
190.34644661706
 20
126.71392588490156
 40
0.16666666666666666
 50
281.08748921096617
 51
360
  0
ARC
  8
2
 62
     4
  6
line_font21
 10
189.92977995039331
 20
126.71392588490156
 40
0.16666666666666666
 50
180
 51
258.91251078903377
  0
ARC
  8
2
 62
     4
  6
continuous
 10
181.05477995039354
 20
124.93537178674872
 40
1
 50
78.46304096718346
 51
101.53695903281478
  0
ARC
  8
2
 62
     4
  6
continuous
 10
180.88811328372691
 20
125.75186836767651
 40
0.16666666666666666
 50
101.53695903281495
 51
180
  0
ARC
  8
2
 62
     4
  6
continuous
 10
181.22144661706022
 20
125.75186836767651
 40
0.16666666666666666
 50
0
 51
78.463040967185051
  0
ARC
  8
2
 62
     4
  6
continuous
 10
179.55477995039351
 20
124.63232813203388
 40
1.6083333333333329
 50
338.85055006530075
 51
360
  0
ARC
  8
2
 62
     4
  6
continuous
 10
179.55477995039351
 20
124.77852161067221
 40
1.6666666666666665
 50
334.15806723683284
 51
360
  0
ARC
  8
2
 62
     4
  6
continuous
 10
182.55477995039362
 20
124.63232813203388
 40
1.6083333333333329
 50
180
 51
201.14944993469928
  0
ARC
  8
2
 62
     4
  6
continuous
 10
182.55477995039362
 20
124.77852161067221
 40
1.6666666666666665
 50
180
 51
205.84193276316714
  0
ARC
  8
2
 62
     4
  6
continuous
 10
119.55477995039351
 20
124.93537178674819
 40
1
 50
78.46304096718346
 51
101.53695903281559
  0
ARC
  8
2
 62
     4
  6
continuous
 10
119.38811328372688
 20
125.75186836767602
 40
0.16666666666666666
 50
101.53695903281495
 51
180
  0
ARC
  8
2
 62
     4
  6
continuous
 10
119.72144661706018
 20
125.75186836767602
 40
0.16666666666666666
 50
0
 51
78.463040967180277
  0
ARC
  8
2
 62
     4
  6
continuous
 10
118.05477995039351
 20
124.63232813203334
 40
1.6083333333333329
 50
338.85055006530121
 51
360
  0
ARC
  8
2
 62
     4
  6
continuous
 10
118.05477995039351
 20
124.77852161067167
 40
1.6666666666666665
 50
334.15806723683284
 51
360
  0
ARC
  8
2
 62
     4
  6
continuous
 10
121.05477995039355
 20
124.63232813203334
 40
1.6083333333333329
 50
180
 51
201.14944993469879
  0
ARC
  8
2
 62
     4
  6
continuous
 10
121.05477995039355
 20
124.77852161067167
 40
1.6666666666666665
 50
180
 51
205.84193276316714
  0
ARC
  8
2
 62
     4
  6
continuous
 10
114.51311328372664
 20
127.5841735969437
 40
0.83333333333333326
 50
0
 51
41.409622109269343
  0
ARC
  8
2
 62
     4
  6
continuous
 10
115.76311328372664
 20
127.5841735969437
 40
0.83333333333333326
 50
138.59037789073068
 51
180
  0
ARC
  8
2
 62
     4
  6
continuous
 10
114.51311328372664
 20
127.69135289325689
 40
0.76666666666666661
 50
0
 51
35.391137279514652
  0
ARC
  8
2
 62
     4
  6
continuous
 10
115.76311328372664
 20
127.69135289325689
 40
0.76666666666666661
 50
144.60886272048535
 51
180
  0
ARC
  8
2
 62
     4
  6
line_font21
 10
115.13811328372664
 20
127.77703845341549
 40
1.25
 50
258.91251078902883
 51
281.08748921097117
  0
ARC
  8
2
 62
     4
  6
line_font21
 10
115.34644661705997
 20
126.71392588490107
 40
0.16666666666666666
 50
281.08748921097674
 51
360
  0
ARC
  8
2
 62
     4
  6
line_font21
 10
114.92977995039331
 20
126.71392588490107
 40
0.16666666666666666
 50
180
 51
258.91251078902326
  0
ARC
  8
2
 62
     4
  6
continuous
 10
227.38811328372688
 20
124.93537178674868
 40
1
 50
78.46304096718346
 51
101.53695903281655
  0
ARC
  8
2
 62
     4
  6
continuous
 10
227.22144661706022
 20
125.75186836767644
 40
0.16666666666666666
 50
101.53695903282453
 51
180
  0
ARC
  8
2
 62
     4
  6
continuous
 10
227.55477995039354
 20
125.75186836767644
 40
0.16666666666666666
 50
0
 51
78.463040967175488
  0
ARC
  8
2
 62
     4
  6
continuous
 10
225.88811328372688
 20
124.63232813203383
 40
1.6083333333333329
 50
338.85055006530121
 51
360
  0
ARC
  8
2
 62
     4
  6
continuous
 10
225.88811328372688
 20
124.77852161067213
 40
1.6666666666666665
 50
334.15806723683284
 51
360
  0
ARC
  8
2
 62
     4
  6
continuous
 10
228.88811328372688
 20
124.63232813203383
 40
1.6083333333333329
 50
180
 51
201.14944993469879
  0
ARC
  8
2
 62
     4
  6
continuous
 10
228.88811328372688
 20
124.77852161067213
 40
1.6666666666666665
 50
180
 51
205.84193276316714
  0
ARC
  8
2
 62
     4
  6
continuous
 10
232.42977995039499
 20
127.58417359694408
 40
0.83333333333333326
 50
138.59037789072929
 51
180
  0
ARC
  8
2
 62
     4
  6
continuous
 10
231.17977995039507
 20
127.58417359694408
 40
0.83333333333333326
 50
0
 51
41.409622109270721
  0
ARC
  8
2
 62
     4
  6
continuous
 10
232.42977995039499
 20
127.69135289325727
 40
0.76666666666666661
 50
144.60886272048623
 51
180.00001187859021
  0
ARC
  8
2
 62
     4
  6
continuous
 10
231.17977995039507
 20
127.69135289325727
 40
0.76666666666666661
 50
0
 51
35.391137279513785
  0
ARC
  8
2
 62
     4
  6
line_font21
 10
231.80477995039499
 20
127.77703845341587
 40
1.25
 50
258.91251078902945
 51
281.08748921097055
  0
ARC
  8
2
 62
     4
  6
line_font21
 10
231.59644661706164
 20
126.71392588490144
 40
0.16666666666666666
 50
180
 51
258.91251078903377
  0
ARC
  8
2
 62
     4
  6
line_font21
 10
232.01311328372833
 20
126.71392588490144
 40
0.16666666666666666
 50
281.08748921096617
 51
360
  0
ARC
  8
2
 62
     4
  6
continuous
 10
206.22700217260979
 20
124.22946888046525
 40
0.18055555555555519
 50
120.00000000000763
 51
239.99999999999241
  0
ARC
  8
2
 62
     4
  6
continuous
 10
206.63325217260979
 20
123.76037178674869
 40
0.58680555555555436
 50
147.79577249602809
 51
212.20422750397191
  0
ARC
  8
2
 62
     4
  6
continuous
 10
206.22700217260979
 20
123.29127469303212
 40
0.18055555555555605
 50
120.00000000000763
 51
239.99999999999241
  0
ARC
  8
2
 62
     4
  6
continuous
 10
215.71589106150293
 20
124.22946888046525
 40
0.18055555555555519
 50
299.99999999999756
 51
60.000000000002451
  0
ARC
  8
2
 62
     4
  6
continuous
 10
215.30964106150293
 20
123.76037178674869
 40
0.58680555555555436
 50
327.79577249602687
 51
32.204227503973101
  0
ARC
  8
2
 62
     4
  6
continuous
 10
215.71589106150293
 20
123.29127469303212
 40
0.18055555555555605
 50
299.99999999999756
 51
60.000000000002451
  0
ARC
  8
2
 62
     7
  6
continuous
 10
211.28686328372339
 20
123.76037178674903
 40
3.7500000000000004
 50
128.94363426315371
 51
230
  0
ARC
  8
2
 62
     7
  6
continuous
 10
211.28686328372339
 20
123.76037178674903
 40
4.166666666666667
 50
140.60853590266399
 51
229.99999999999989
  0
ARC
  8
2
 62
     7
  6
continuous
 10
207.93794140082167
 20
126.51037178674903
 40
0.16666666666666666
 50
320.60853590266726
 51
90
  0
ARC
  8
2
 62
     4
  6
continuous
 10
204.54401619000703
 20
126.09926067563791
 40
0.18055555555555519
 50
209.99999999999756
 51
329.99999999999858
  0
ARC
  8
2
 62
     4
  6
continuous
 10
205.01311328372361
 20
126.50551067563791
 40
0.58680555555555436
 50
237.79577249602687
 51
302.20422750397313
  0
ARC
  8
2
 62
     4
  6
continuous
 10
205.48221037744014
 20
126.09926067563791
 40
0.18055555555555605
 50
210.00000000000145
 51
330.00000000000244
  0
ARC
  8
2
 62
     7
  6
continuous
 10
210.65602995038978
 20
123.76037178674872
 40
3.7500000000000004
 50
309.99999999999994
 51
51.056365736846288
  0
ARC
  8
2
 62
     7
  6
continuous
 10
210.65602995038978
 20
123.76037178674872
 40
4.166666666666667
 50
310.00000000000011
 51
39.391464097336183
  0
ARC
  8
2
 62
     7
  6
continuous
 10
214.00495183329147
 20
126.51037178674876
 40
0.16666666666666666
 50
90
 51
219.39146409733274
  0
ARC
  8
2
 62
     4
  6
continuous
 10
216.46068285667383
 20
126.09926067563757
 40
0.18055555555555519
 50
210.00000000000145
 51
330.00000000000244
  0
ARC
  8
2
 62
     4
  6
continuous
 10
216.92977995039035
 20
126.50551067563761
 40
0.58680555555555436
 50
237.79577249602687
 51
302.20422750397313
  0
ARC
  8
2
 62
     4
  6
continuous
 10
217.39887704410697
 20
126.09926067563757
 40
0.18055555555555605
 50
210.00000000000145
 51
329.99999999999858
  0
ARC
  8
2
 62
     4
  6
continuous
 10
155.17977995038945
 20
97.364538453414312
 40
3.541666666663545
 50
151.92751306417713
 51
208.07248693590495
  0
ARC
  8
2
 62
     4
  6
continuous
 10
149.59644661706088
 20
97.364538453413971
 40
3.5416666666651908
 50
331.92751306411077
 51
28.072486935891501
  0
TEXT
  8
2
 62
     7
 10
152.01079903083516
 20
49.038162791143165
 40
2.4096385542168677
 41
1
  1
ボトムレールブラケット
  7
KANJI
 50
0
  72
    5
  11
174.01079903083516
  21
49.038162791143165
  0
TEXT
  8
2
 62
     7
 10
161.943886861908
 20
52.738838115870777
 40
2.4096385542168677
 41
1
  1
ＳＵＳ３０４
  7
KANJI
 50
0
  72
    5
  11
173.943886861908
  21
52.738838115870777
  0
TEXT
  8
2
 62
     7
 10
224.03701170029859
 20
52.735742391143532
 40
2.4096385542168677
 41
1
  1
ＳＵＳ３０４
  7
KANJI
 50
0
  72
    5
  11
236.03701170029859
  21
52.735742391143532
  0
TEXT
  8
2
 62
     7
 10
111.48829829856962
 20
52.74879327938973
 40
2.4096385542168677
 41
1
  1
ＳＵＳ３０４
  7
KANJI
 50
0
  72
    5
  11
123.48829829856962
  21
52.74879327938973
  0
TEXT
  8
2
 62
     7
 10
86.891551083882547
 20
116.92391807006666
 40
2.4096385542168677
 41
1
  1
ＳＵＳ３０４
  7
KANJI
 50
0
  72
    5
  11
98.891551083882547
  21
116.92391807006666
  0
TEXT
  8
2
 62
     7
 10
162.50116737732645
 20
134.52513655534659
 40
2.4096385542168677
 41
1
  1
ＳＵＳ３０４
  7
KANJI
 50
0
  72
    5
  11
174.50116737732645
  21
134.52513655534659
  0
TEXT
  8
2
 62
     7
 10
50.699699154346646
 20
24.272899636017602
 40
2.4096385542168677
 41
1
  1
ＳＳ４００
  7
KANJI
 50
0
  72
    5
  11
60.699699154346646
  21
24.272899636017602
  0
TEXT
  8
2
 62
     7
 10
91.742184562008632
 20
24.552643937725129
 40
2.4096385542168677
 41
1
  1
ＳＳ４００
  7
KANJI
 50
0
  72
    5
  11
101.74218456200863
  21
24.552643937725129
  0
TEXT
  8
2
 62
     7
 10
129.42358029429556
 20
70.126318419963638
 40
2.4096385542168677
 41
1
  1
５
  7
KANJI
 50
0
  72
    5
  11
131.42358029429556
  21
70.126318419963638
  0
TEXT
  8
2
 62
     7
 10
204.42358029429585
 20
69.876318419963667
 40
2.4096385542168677
 41
1
  1
５
  7
KANJI
 50
0
  72
    5
  11
206.42358029429585
  21
69.876318419963667
  0
TEXT
  8
2
 62
     7
 10
209.84918854751038
 20
87.650690578419784
 40
2.4096385542168677
 41
1
  1
５.６
  7
KANJI
 50
90
  72
    5
  11
209.84918854751038
  21
92.650690578419784
  0
TEXT
  8
2
 62
     7
 10
215.05868094300504
 20
94.794612179875912
 40
2.4096385542168677
 41
1
  1
３.５
  7
KANJI
 50
0
  72
    5
  11
220.05868094300504
  21
94.794612179875912
  0
TEXT
  8
2
 62
     7
 10
152.87831230838782
 20
101.72757011317772
 40
2.4096385542168677
 41
1
  1
１８
  7
KANJI
 50
0
  72
    5
  11
156.87831230838782
  21
101.72757011317772
  0
TEXT
  8
2
 62
     7
 10
205.4900686487349
 20
135.11932022815765
 40
2.4096385542168677
 41
1
  1
２.５
  7
KANJI
 50
0
  72
    5
  11
210.4900686487349
  21
135.11932022815765
  0
TEXT
  8
2
 62
     7
 10
211.41645768470818
 20
135.11932022815765
 40
2.4096385542168677
 41
1
  1
２.５
  7
KANJI
 50
0
  72
    5
  11
216.41645768470818
  21
135.11932022815765
  0
TEXT
  8
2
 62
     7
 10
218.85057425924492
 20
118.1297027754992
 40
2.4096385542168677
 41
1
  1
２５
  7
KANJI
 50
0
  72
    5
  11
222.85057425924492
  21
118.1297027754992
  0
TEXT
  8
2
 62
     7
 10
198.79777948562833
 20
118.1297027754992
 40
2.4096385542168677
 41
1
  1
２５
  7
KANJI
 50
0
  72
    5
  11
202.79777948562833
  21
118.1297027754992
  0
TEXT
  8
2
 62
     7
 10
123.78401845823674
 20
118.12970277549927
 40
2.4096385542168677
 41
1
  1
２５
  7
KANJI
 50
0
  72
    5
  11
127.78401845823674
  21
118.12970277549927
  0
TEXT
  8
2
 62
     7
 10
144.38337559509674
 20
118.12970277549927
 40
2.4096385542168677
 41
1
  1
２５
  7
KANJI
 50
0
  72
    5
  11
148.38337559509674
  21
118.12970277549927
  0
TEXT
  8
シ__ト8
 62
     7
 10
109.65496170637473
 20
163.68460726295109
 40
2.4096385542168677
 41
1
  1
１０００
  7
KANJI
 50
90
  72
    5
  11
109.65496170637473
  21
171.68460726295109
  0
TEXT
  8
シ__ト8
 62
     7
 10
112.69635672022868
 20
162.7445540897304
 40
2.4096385542168677
 41
1
  1
(１１００)
  7
KANJI
 50
90
  72
    5
  11
112.69635672022868
  21
172.7445540897304
  0
TEXT
  8
シ__ト8
 62
     7
 10
85.809538021758812
 20
184.53961307353651
 40
4.8192771084337354
 41
1
  1
姿　図
  7
KANJI
 50
0
  72
    5
  11
97.809538021758812
  21
184.53961307353651
  0
TEXT
  8
シ__ト8
 62
     7
 10
59.18170929234185
 20
145.87703363647444
 40
4.8192771084337354
 41
1
  1
詳細図
  7
KANJI
 50
0
  72
    5
  11
71.18170929234185
  21
145.87703363647444
  0
TEXT
  8
シ__ト13
 62
     7
 10
248.83339553208856
 20
202.59452457839734
 40
4.2168674698795181
 41
1
  1
ＦＡ-１１１２５-１０
  7
KANJI
 50
0
  72
    5
  11
283.83339553208856
  21
202.59452457839734
  0
TEXT
  8
シ__ト14
 62
     7
 10
226.62080383300781
 20
16.96308708190918
 40
4.2168674698795181
 41
1
  1
ＦＡ-１１１２５-１０
  7
KANJI
 50
0
  72
    5
  11
261.62080383300781
  21
16.96308708190918
  0
TEXT
  8
シ__ト14
 62
     7
 10
260.56996581535134
 20
17.515219764866774
 40
2.4096385542168677
 41
1
  1
（ＦＡ－１１１２５－１１）
  7
KANJI
 50
0
  72
    5
  11
291.12996581535134
  21
17.515219764866774
  0
INSERT
  8
2
  2
BV_ATTRIBUTE1
 10
56.386543488609703
 20
47.093705120082461
  0
INSERT
  8
2
  2
BV_ATTRIBUTE2
 10
51.386543488609703
 20
47.093705120082461
  0
INSERT
  8
2
  2
BV_ATTRIBUTE3
 10
51.386543488609703
 20
59.593705120082433
  0
INSERT
  8
2
  2
BV_ATTRIBUTE4
 10
51.386543488609703
 20
124.59370512008249
  0
INSERT
  8
2
  2
BV_ATTRIBUTE5
 10
73.598830755567548
 20
94.260371786748976
  0
INSERT
  8
2
  2
BV_ATTRIBUTE6
 10
75.057164088900748
 20
67.72597591811197
  0
INSERT
  8
2
  2
BV_ATTRIBUTE7
 10
72.765497422234176
 20
136.0492713782061
  0
INSERT
  8
2
  2
BV_ATTRIBUTE8
 10
203.05477995039035
 20
144.51932022815765
  0
INSERT
  8
2
  2
BV_ATTRIBUTE9
 10
205.01311328372361
 20
117.5297027754992
  0
INSERT
  8
2
  2
BV_ATTRIBUTE10
 10
202.92977995039007
 20
112.52970277549919
  0
INSERT
  8
2
  2
BV_ATTRIBUTE11
 10
202.65475749250595
 20
92.550888203109082
  0
INSERT
  8
2
  2
BV_ATTRIBUTE12
 10
206.80477995039308
 20
104.26036115117026
  0
INSERT
  8
2
  2
BV_ATTRIBUTE13
 10
128.05477995039328
 20
144.51932022815765
  0
INSERT
  8
2
  2
BV_ATTRIBUTE14
 10
131.8047799503928
 20
94.260371786748976
  0
INSERT
  8
2
  2
BV_ATTRIBUTE15
 10
130.01311328372685
 20
117.52970277549929
  0
INSERT
  8
2
  2
BV_ATTRIBUTE16
 10
127.92977995039331
 20
112.52970277549926
  0
INSERT
  8
2
  2
BV_ATTRIBUTE17
 10
127.63811328372185
 20
54.526318419963644
  0
INSERT
  8
2
  2
BV_ATTRIBUTE18
 10
140.13811328372654
 20
54.526318419963644
  0
INSERT
  8
2
  2
BV_ATTRIBUTE19
 10
140.13811328372654
 20
69.526318419963644
  0
INSERT
  8
2
  2
BV_ATTRIBUTE20
 10
202.63811328372213
 20
54.27631841996368
  0
INSERT
  8
2
  2
BV_ATTRIBUTE21
 10
215.13811328372685
 20
54.27631841996368
  0
INSERT
  8
2
  2
BV_ATTRIBUTE22
 10
215.13811328372685
 20
69.276318419963673
  0
INSERT
  8
2
  2
BV_ATTRIBUTE23
 10
46.386543488609703
 20
47.093705120082461
  0
INSERT
  8
2
  2
BV_ATTRIBUTE24
 10
46.386543488609703
 20
130.42703845341586
  0
INSERT
  8
2
  2
BV_ATTRIBUTE25
 10
41.386543488609696
 20
34.593705120082497
  0
INSERT
  8
2
  2
BV_ATTRIBUTE26
 10
51.386543488609703
 20
63.343705120082468
  0
INSERT
  8
2
  2
BV_ATTRIBUTE27
 10
91.926236489983353
 20
34.593705120082497
  0
INSERT
  8
2
  2
BV_ATTRIBUTE28
 10
81.932164088901189
 20
28.122713669134345
  0
INSERT
  8
2
  2
BV_ATTRIBUTE29
 10
73.59883075556759
 20
28.122713669134345
  0
INSERT
  8
2
  2
BV_ATTRIBUTE30
 10
81.932164088901118
 20
28.122713669134345
  0
INSERT
  8
2
  2
BV_ATTRIBUTE31
 10
149.26867468487785
 20
99.031205120081509
  0
INSERT
  8
2
  2
BV_ATTRIBUTE32
 10
210.76311328373561
 20
139.51932022815765
  0
INSERT
  8
2
  2
BV_ATTRIBUTE33
 10
77.993328336482875
 20
51.363294449515834
  0
INSERT
  8
2
  2
BV_ATTRIBUTE34
 10
80.390497422234475
 20
123.44764039093738
  0
INSERT
  8
2
  2
BV_ATTRIBUTE35
 10
66.918393721998285
 20
40.098212149861851
  0
INSERT
  8
2
  2
BV_ATTRIBUTE36
 10
71.09883075556759
 20
34.593705120082497
  0
INSERT
  8
2
  2
BV_ATTRIBUTE37
 10
84.332164088901166
 20
36.843705120082497
  0
INSERT
  8
2
  2
BV_ATTRIBUTE38
 10
128.59989531850252
 20
126.67703845341555
  0
INSERT
  8
2
  2
BV_ATTRIBUTE39
 10
128.05477995039405
 20
129.21891642976081
  0
INSERT
  8
2
  2
BV_ATTRIBUTE40
 10
118.8423931356659
 20
99.153504791139085
  0
INSERT
  8
2
  2
BV_ATTRIBUTE41
 10
152.58811328372664
 20
62.89724255630319
  0
INSERT
  8
2
  2
BV_ATTRIBUTE42
 10
218.34345508498748
 20
62.318705120082491
  0
INSERT
  8
2
  2
BV_ATTRIBUTE43
 10
130.22144661705514
 20
61.218705120082355
  0
INSERT
  8
2
  2
BV_ATTRIBUTE44
 10
244.90386868753455
 20
125.42703845341363
  0
INSERT
  8
2
  2
BV_ATTRIBUTE45
 10
158.07889732375125
 20
127.86189984571621
  0
INSERT
  8
2
  2
BV_ATTRIBUTE46
 10
82.765497422234404
 20
128.63934690355069
  0
INSERT
  8
2
  2
BV_ATTRIBUTE47
 10
81.932164088900876
 20
96.80792882958005
  0
INSERT
  8
シ__ト2
  2
BV_ATTRIBUTE48
 10
80.409566961571784
 20
63.179922968435271
  0
INSERT
  8
シ__ト8
  2
BV_ATTRIBUTE49
 10
161.43530509783767
 20
189.97721313508845
  0
INSERT
  8
シ__ト8
  2
BV_ATTRIBUTE50
 10
203.10197176450436
 20
189.97721313508845
  0
INSERT
  8
シ__ト8
  2
BV_ATTRIBUTE51
 10
114.76863843117101
 20
189.97721313508845
  0
INSERT
  8
シ__ト8
  2
BV_ATTRIBUTE52
 10
161.43530509783767
 20
184.97721313508845
  0
INSERT
  8
シ__ト8
  2
BV_ATTRIBUTE53
 10
119.76863843117098
 20
184.97721313508845
  0
INSERT
  8
シ__ト8
  2
BV_ATTRIBUTE54
 10
164.71863843117097
 20
179.97721313508845
  0
INSERT
  8
シ__ト8
  2
BV_ATTRIBUTE55
 10
161.43530509783767
 20
179.97721313508845
  0
INSERT
  8
シ__ト8
  2
BV_ATTRIBUTE56
 10
199.81863843117108
 20
179.97721313508845
  0
ENDSEC
  0
EOF
