  0
SECTION
  2
HEADER
  9
$ACADVER
  1
AC1009
9
$DWGCODEPAGE
  3
dos932
  9
$LIMMIN
 10
0.0
 20
0.0
  9
$LIMMAX
 10
297.0
 20
210.0
  9
$LTSCALE
 40
11.0
  9
$TEXTSIZE
 40
4.0
  9
$PDMODE
 70
  35
  9
$PDSIZE
 40
 0.0
  0
ENDSEC
  0
SECTION
  2
TABLES
  0
TABLE
  2
LTYPE
 70
     5
  0
LTYPE
  2
continuous
 70
    64
  3
実線
 72
    65
 73
0
 40
0
  0
LTYPE
  2
dashed
 70
    64
  3
破線
 72
    65
 73
2
 40
1.875
 49
1.5
49
-0.375
  0
LTYPE
  2
dashed_spaced
 70
    64
  3
跳び破線
 72
    65
 73
2
 40
3
 49
1.5
49
-1.5
  0
LTYPE
  2
long_dashed_dotted
 70
    64
  3
一点長鎖線
 72
    65
 73
4
 40
3.8125
 49
3
49
-0.375
 49
0.0625
49
-0.375
  0
LTYPE
  2
long_dashed_double-dotted
 70
    64
  3
二点長鎖線
 72
    65
 73
6
 40
4.25
 49
3
49
-0.375
 49
0.0625
49
-0.375
 49
0.0625
49
-0.375
  0
LTYPE
  2
long_dashed_triplicate-dotted
 70
    64
  3
三点長鎖線
 72
    65
 73
8
 40
4.6875
 49
3
49
-0.375
 49
0.0625
49
-0.375
 49
0.0625
49
-0.375
 49
0.0625
49
-0.375
  0
LTYPE
  2
dotted
 70
    64
  3
点線
 72
    65
 73
2
 40
0.4375
 49
0.0625
49
-0.375
  0
LTYPE
  2
chain
 70
    64
  3
一点鎖線
 72
    65
 73
4
 40
4.625
 49
3
49
-0.375
 49
0.875
49
-0.375
  0
LTYPE
  2
chain_double_dash
 70
    64
  3
二点鎖線
 72
    65
 73
6
 40
5.875
 49
3
49
-0.375
 49
0.875
49
-0.375
 49
0.875
49
-0.375
  0
LTYPE
  2
dashed_dotted
 70
    64
  3
一点短鎖線
 72
    65
 73
4
 40
2.3125
 49
1.5
49
-0.375
 49
0.0625
49
-0.375
  0
LTYPE
  2
double-dashed_dotted
 70
    64
  3
一点二短鎖線
 72
    65
 73
6
 40
4.1875
 49
1.5
49
-0.375
 49
1.5
49
-0.375
 49
0.0625
49
-0.375
  0
LTYPE
  2
dashed_double-dotted
 70
    64
  3
二点短鎖線
 72
    65
 73
6
 40
2.75
 49
1.5
49
-0.375
 49
0.0625
49
-0.375
 49
0.0625
49
-0.375
  0
LTYPE
  2
double-dashed_double-dotted
 70
    64
  3
二点二短鎖線
 72
    65
 73
8
 40
4.625
 49
1.5
49
-0.375
 49
1.5
49
-0.375
 49
0.0625
49
-0.375
 49
0.0625
49
-0.375
  0
LTYPE
  2
dashed_triplicate-dotted
 70
    64
  3
三点短鎖線
 72
    65
 73
8
 40
3.1875
 49
1.5
49
-0.375
 49
0.0625
49
-0.375
 49
0.0625
49
-0.375
 49
0.0625
49
-0.375
  0
LTYPE
  2
double-dashed_triplicate-dotted
 70
    64
  3
三点二短鎖線
 72
    65
 73
10
 40
5.0625
 49
1.5
49
-0.375
 49
1.5
49
-0.375
 49
0.0625
49
-0.375
 49
0.0625
49
-0.375
 49
0.0625
49
-0.375
  0
LTYPE
  2
chain_double_dash
 70
    64
  3
chain_double_dash
 72
    65
 73
6
 40
16.15625
 49
8.25
49
-1.03125
 49
2.40625
49
-1.03125
 49
2.40625
49
-1.03125
  0
LTYPE
  2
line_font16
 70
    64
  3
dashed
 72
    65
 73
2
 40
5.15625
 49
4.125
49
-1.03125
  0
LTYPE
  2
line_font22
 70
    64
  3
chain
 72
    65
 73
4
 40
12.71875
 49
8.25
49
-1.03125
 49
2.40625
49
-1.03125
  0
LTYPE
  2
line_font21
 70
    64
  3
dotted
 72
    65
 73
2
 40
1.203125
 49
0.171875
49
-1.03125
  0
LTYPE
  2
line_font8447
 70
    64
  3
線種8447
 72
    65
 73
4
 40
7.5
 49
4.6875
49
-0.9375
 49
0.9375
49
-0.9375
  0
LTYPE
  2
line_font8445
 70
    64
  3
線種8445
 72
    65
 73
2
 40
1.875
 49
1.40625
49
-0.46875
  0
LTYPE
  2
line_font8449
 70
    64
  3
線種8449
 72
    65
 73
6
 40
7.5
 49
3.75
49
-0.9375
 49
0.46875
49
-0.9375
 49
0.46875
49
-0.9375
  0
LTYPE
  2
BORDER
 70
    64
  3
BORDER
 72
    65
 73
4
 40
1.7124999999999999
 49
1.5
49
-0.074999999999999997
 49
0.0625
49
-0.074999999999999997
  0
LTYPE
  2
dashed_spaced
 70
    64
  3
dashed_spaced
 72
    65
 73
2
 40
8.25
 49
4.125
49
-4.125
  0
LTYPE
  2
long_dashed_dotted
 70
    64
  3
long_dashed_dotted
 72
    65
 73
4
 40
10.484375
 49
8.25
49
-1.03125
 49
0.171875
49
-1.03125
  0
LTYPE
  2
long_dashed_double-dotted
 70
    64
  3
long_dashed_double-dotted
 72
    65
 73
6
 40
11.6875
 49
8.25
49
-1.03125
 49
0.171875
49
-1.03125
 49
0.171875
49
-1.03125
  0
LTYPE
  2
long_dashed_triplicate-dotted
 70
    64
  3
long_dashed_triplicate-dotted
 72
    65
 73
8
 40
12.890625
 49
8.25
49
-1.03125
 49
0.171875
49
-1.03125
 49
0.171875
49
-1.03125
 49
0.171875
49
-1.03125
  0
LTYPE
  2
line_font28
 70
    64
  3
線種28
 72
    65
 73
6
 40
44.4296875
 49
22.6875
49
-2.8359375
 49
6.6171875
49
-2.8359375
 49
6.6171875
49
-2.8359375
  0
LTYPE
  2
dashed_dotted
 70
    64
  3
dashed_dotted
 72
    65
 73
4
 40
6.359375
 49
4.125
49
-1.03125
 49
0.171875
49
-1.03125
  0
LTYPE
  2
double-dashed_dotted
 70
    64
  3
double-dashed_dotted
 72
    65
 73
6
 40
11.515625
 49
4.125
49
-1.03125
 49
4.125
49
-1.03125
 49
0.171875
49
-1.03125
  0
LTYPE
  2
dashed_double-dotted
 70
    64
  3
dashed_double-dotted
 72
    65
 73
6
 40
7.5625
 49
4.125
49
-1.03125
 49
0.171875
49
-1.03125
 49
0.171875
49
-1.03125
  0
LTYPE
  2
double-dashed_double-dotted
 70
    64
  3
double-dashed_double-dotted
 72
    65
 73
8
 40
12.71875
 49
4.125
49
-1.03125
 49
4.125
49
-1.03125
 49
0.171875
49
-1.03125
 49
0.171875
49
-1.03125
  0
LTYPE
  2
dashed_triplicate-dotted
 70
    64
  3
dashed_triplicate-dotted
 72
    65
 73
8
 40
8.765625
 49
4.125
49
-1.03125
 49
0.171875
49
-1.03125
 49
0.171875
49
-1.03125
 49
0.171875
49
-1.03125
  0
LTYPE
  2
double-dashed_triplicate-dotted
 70
    64
  3
double-dashed_triplicate-dotted
 72
    65
 73
10
 40
13.921875
 49
4.125
49
-1.03125
 49
4.125
49
-1.03125
 49
0.171875
49
-1.03125
 49
0.171875
49
-1.03125
 49
0.171875
49
-1.03125
  0
LTYPE
  2
line_font35
 70
    64
  3
line_font16
 72
    65
 73
2
 40
14.1796875
 49
11.34375
49
-2.8359375
  0
LTYPE
  2
line_font36
 70
    64
  3
line_font22
 72
    65
 73
4
 40
34.9765625
 49
22.6875
49
-2.8359375
 49
6.6171875
49
-2.8359375
  0
LTYPE
  2
line_font37
 70
    64
  3
line_font21
 72
    65
 73
2
 40
3.30859375
 49
0.47265625
49
-2.8359375
  0
LTYPE
  2
line_font38
 70
    64
  3
line_font8447
 72
    65
 73
4
 40
20.625
 49
12.890625
49
-2.578125
 49
2.578125
49
-2.578125
  0
LTYPE
  2
line_font39
 70
    64
  3
line_font8445
 72
    65
 73
2
 40
5.15625
 49
3.8671875
49
-1.2890625
  0
LTYPE
  2
line_font40
 70
    64
  3
line_font8449
 72
    65
 73
6
 40
20.625
 49
10.3125
49
-2.578125
 49
1.2890625
49
-2.578125
 49
1.2890625
49
-2.578125
  0
LTYPE
  2
line_font41
 70
    64
  3
線種41
 72
    65
 73
4
 40
4.7093749999999996
 49
4.125
49
-0.20624999999999999
 49
0.171875
49
-0.20624999999999999
  0
LTYPE
  2
line_font42
 70
    64
  3
線種42
 72
    65
 73
2
 40
51.5625
 49
41.25
49
-10.3125
  0
LTYPE
  2
line_font43
 70
    64
  3
線種43
 72
    65
 73
2
 40
82.5
 49
41.25
49
-41.25
  0
LTYPE
  2
line_font44
 70
    64
  3
線種44
 72
    65
 73
4
 40
104.84375
 49
82.5
49
-10.3125
 49
1.71875
49
-10.3125
  0
LTYPE
  2
line_font45
 70
    64
  3
線種45
 72
    65
 73
6
 40
116.875
 49
82.5
49
-10.3125
 49
1.71875
49
-10.3125
 49
1.71875
49
-10.3125
  0
LTYPE
  2
line_font46
 70
    64
  3
線種46
 72
    65
 73
8
 40
128.90625
 49
82.5
49
-10.3125
 49
1.71875
49
-10.3125
 49
1.71875
49
-10.3125
 49
1.71875
49
-10.3125
  0
LTYPE
  2
line_font47
 70
    64
  3
線種47
 72
    65
 73
2
 40
12.03125
 49
1.71875
49
-10.3125
  0
LTYPE
  2
line_font48
 70
    64
  3
線種48
 72
    65
 73
4
 40
127.1875
 49
82.5
49
-10.3125
 49
24.0625
49
-10.3125
  0
LTYPE
  2
line_font49
 70
    64
  3
線種49
 72
    65
 73
6
 40
444.296875
 49
226.875
49
-28.359375
 49
66.171875
49
-28.359375
 49
66.171875
49
-28.359375
  0
LTYPE
  2
line_font50
 70
    64
  3
線種50
 72
    65
 73
4
 40
63.59375
 49
41.25
49
-10.3125
 49
1.71875
49
-10.3125
  0
LTYPE
  2
line_font51
 70
    64
  3
線種51
 72
    65
 73
6
 40
115.15625
 49
41.25
49
-10.3125
 49
41.25
49
-10.3125
 49
1.71875
49
-10.3125
  0
LTYPE
  2
line_font52
 70
    64
  3
線種52
 72
    65
 73
6
 40
75.625
 49
41.25
49
-10.3125
 49
1.71875
49
-10.3125
 49
1.71875
49
-10.3125
  0
LTYPE
  2
line_font53
 70
    64
  3
線種53
 72
    65
 73
8
 40
127.1875
 49
41.25
49
-10.3125
 49
41.25
49
-10.3125
 49
1.71875
49
-10.3125
 49
1.71875
49
-10.3125
  0
LTYPE
  2
line_font54
 70
    64
  3
線種54
 72
    65
 73
8
 40
87.65625
 49
41.25
49
-10.3125
 49
1.71875
49
-10.3125
 49
1.71875
49
-10.3125
 49
1.71875
49
-10.3125
  0
LTYPE
  2
line_font55
 70
    64
  3
線種55
 72
    65
 73
10
 40
139.21875
 49
41.25
49
-10.3125
 49
41.25
49
-10.3125
 49
1.71875
49
-10.3125
 49
1.71875
49
-10.3125
 49
1.71875
49
-10.3125
  0
LTYPE
  2
line_font56
 70
    64
  3
線種56
 72
    65
 73
2
 40
141.796875
 49
113.4375
49
-28.359375
  0
LTYPE
  2
line_font57
 70
    64
  3
線種57
 72
    65
 73
4
 40
349.765625
 49
226.875
49
-28.359375
 49
66.171875
49
-28.359375
  0
LTYPE
  2
line_font58
 70
    64
  3
線種58
 72
    65
 73
2
 40
33.0859375
 49
4.7265625
49
-28.359375
  0
LTYPE
  2
line_font59
 70
    64
  3
線種59
 72
    65
 73
4
 40
206.25
 49
128.90625
49
-25.78125
 49
25.78125
49
-25.78125
  0
LTYPE
  2
line_font60
 70
    64
  3
線種60
 72
    65
 73
2
 40
51.5625
 49
38.671875
49
-12.890625
  0
LTYPE
  2
line_font61
 70
    64
  3
線種61
 72
    65
 73
6
 40
206.25
 49
103.125
49
-25.78125
 49
12.890625
49
-25.78125
 49
12.890625
49
-25.78125
  0
LTYPE
  2
line_font62
 70
    64
  3
線種62
 72
    65
 73
4
 40
47.09375
 49
41.25
49
-2.0625
 49
1.71875
49
-2.0625
  0
LTYPE
  2
STITCH
 70
    64
  3
STITCH
 72
    65
 73
2
 40
0.14999999999999999
 49
0.074999999999999997
49
-0.074999999999999997
  0
ENDTAB
  0
TABLE
  2
LAYER
 70
    16
  0
LAYER
  2
0
 70
     0
 62
     7
  6
CONTINUOUS
  0
LAYER
  2
____
 70
     0
 62
     7
  6
CONTINUOUS
  0
LAYER
  2
LAYOUT1
 70
     0
 62
     7
  6
CONTINUOUS
  0
LAYER
  2
レイヤ3
 70
     0
 62
     7
  6
CONTINUOUS
  0
LAYER
  2
レイヤ4
 70
     0
 62
     7
  6
CONTINUOUS
  0
LAYER
  2
レイヤ5
 70
     0
 62
     7
  6
CONTINUOUS
  0
LAYER
  2
レイヤ6
 70
     0
 62
     7
  6
CONTINUOUS
  0
LAYER
  2
レイヤ7
 70
     0
 62
     7
  6
CONTINUOUS
  0
LAYER
  2
レイヤ8
 70
     0
 62
     7
  6
CONTINUOUS
  0
LAYER
  2
レイヤ9
 70
     0
 62
     7
  6
CONTINUOUS
  0
LAYER
  2
レイヤ10
 70
     0
 62
     7
  6
CONTINUOUS
  0
LAYER
  2
レイヤ11
 70
     0
 62
     7
  6
CONTINUOUS
  0
LAYER
  2
レイヤ12
 70
     0
 62
     7
  6
CONTINUOUS
  0
LAYER
  2
レイヤ13
 70
     0
 62
     7
  6
CONTINUOUS
  0
LAYER
  2
レイヤ14
 70
     0
 62
     7
  6
CONTINUOUS
  0
LAYER
  2
レイヤ15
 70
     0
 62
     7
  6
CONTINUOUS
  0
ENDTAB
  0
TABLE
  2
STYLE
 70
     2
  0
STYLE
  2
STANDARD
 70
     0
 40
0.0
 41
1.0
 50
0.0
 71
     0
 42
0.2
  3
TXT
  4

  0
STYLE
  2
KANJI
 70
     0
 40
0.0
 41
1.0
 50
0.0
 71
     0
 42
0.2
  3
TXT
  4
BIGFONT
  0
STYLE
  2
KANJIT
 70
     4
 40
0.0
 41
1.0
 50
0.0
 71
     0
 42
0.2
  3
TXT
  4
BIGFONT
  0
ENDTAB
  0
TABLE
  2
VIEW
 70
     0
  0
ENDTAB
  0
ENDSEC
  0
SECTION
  2
BLOCKS
  0
BLOCK
  8
____
  2
BV_ATTRIBUTE1
 70
    64
 10
0.0
 20
0.0
 30
0.0
  0
LINE
  8
____
 62
     7
  6
continuous
 10
0
 20
0
 11
-0.084530570827283213
 21
-0.12884871498594919
  0
LINE
  8
____
 62
     7
  6
continuous
 10
-0.084530570827283213
 20
-0.12884871498594919
 11
-0.1660851370475882
 21
-0.2570115373122448
  0
LINE
  8
____
 62
     7
  6
continuous
 10
-0.1660851370475882
 20
-0.2570115373122448
 11
-0.24168769405382307
 21
-0.38380257431921194
  0
LINE
  8
____
 62
     7
  6
continuous
 10
-0.24168769405382307
 20
-0.38380257431921194
 11
-0.308362237239038
 21
-0.50853593334718283
  0
LINE
  8
____
 62
     7
  6
continuous
 10
-0.308362237239038
 20
-0.50853593334718283
 11
-0.3631327619961553
 21
-0.6305257217365039
  0
LINE
  8
____
 62
     7
  6
continuous
 10
-0.3631327619961553
 20
-0.6305257217365039
 11
-0.40302326371819674
 21
-0.74908604682749313
  0
LINE
  8
____
 62
     7
  6
continuous
 10
-0.40302326371819674
 20
-0.74908604682749313
 11
-0.42505773779816991
 21
-0.86353101596050408
  0
LINE
  8
____
 62
     7
  6
continuous
 10
-0.42505773779816991
 20
-0.86353101596050408
 11
-0.42626017962902552
 21
-0.97317473647585473
  0
LINE
  8
____
 62
     7
  6
continuous
 10
-0.42626017962902552
 20
-0.97317473647585473
 11
-0.40365458460372849
 21
-1.0773313157138986
  0
LINE
  8
____
 62
     7
  6
continuous
 10
-0.40365458460372849
 20
-1.0773313157138986
 11
-0.35426494811531484
 21
-1.175314861014968
  0
LINE
  8
____
 62
     7
  6
continuous
 10
-0.35426494811531484
 20
-1.175314861014968
 11
-0.32073127168627025
 21
-1.2197234993737212
  0
LINE
  8
____
 62
     7
  6
continuous
 10
-0.32073127168627025
 20
-1.2197234993737212
 11
-0.28192597026540511
 21
-1.2629313373113504
  0
LINE
  8
____
 62
     7
  6
continuous
 10
-0.28192597026540511
 20
-1.2629313373113504
 11
-0.23934014525939062
 21
-1.3052962092237266
  0
LINE
  8
____
 62
     7
  6
continuous
 10
-0.23934014525939062
 20
-1.3052962092237266
 11
-0.19446489807478429
 21
-1.3471759495067204
  0
LINE
  8
____
 62
     7
  6
continuous
 10
-0.19446489807478429
 20
-1.3471759495067204
 11
-0.14879133011817203
 21
-1.3889283925561955
  0
LINE
  8
____
 62
     7
  6
continuous
 10
-0.14879133011817203
 20
-1.3889283925561955
 11
-0.10381054279622504
 21
-1.4309113727679943
  0
LINE
  8
____
 62
     7
  6
continuous
 10
-0.10381054279622504
 20
-1.4309113727679943
 11
-0.061013637515543451
 21
-1.4734827245380089
  0
LINE
  8
____
 62
     7
  6
continuous
 10
-0.061013637515543451
 20
-1.4734827245380089
 11
-0.021891715682741619
 21
-1.5170002822620887
  0
LINE
  8
____
 62
     7
  6
continuous
 10
-0.021891715682741619
 20
-1.5170002822620887
 11
0.012064121295594532
 21
-1.5618218803360975
  0
LINE
  8
____
 62
     7
  6
continuous
 10
0.012064121295594532
 20
-1.5618218803360975
 11
0.039362772012836444
 21
-1.6083053531558988
  0
LINE
  8
____
 62
     7
  6
continuous
 10
0.039362772012836444
 20
-1.6083053531558988
 11
0.064340270339073413
 21
-1.6759613374628088
  0
LINE
  8
____
 62
     7
  6
continuous
 10
0.064340270339073413
 20
-1.6759613374628088
 11
0.075214963086551734
 21
-1.747112972207205
  0
LINE
  8
____
 62
     7
  6
continuous
 10
0.075214963086551734
 20
-1.747112972207205
 11
0.073553828652947573
 21
-1.8213718517849316
  0
LINE
  8
____
 62
     7
  6
continuous
 10
0.073553828652947573
 20
-1.8213718517849316
 11
0.060923845435908675
 21
-1.8983495705918116
  0
LINE
  8
____
 62
     7
  6
continuous
 10
0.060923845435908675
 20
-1.8983495705918116
 11
0.038891991833054362
 21
-1.9776577230236825
  0
LINE
  8
____
 62
     7
  6
continuous
 10
0.038891991833054362
 20
-1.9776577230236825
 11
0.0090252462420323809
 21
-2.0589079034763813
  0
LINE
  8
____
 62
     7
  6
continuous
 10
0.0090252462420323809
 20
-2.0589079034763813
 11
-0.027109412939580579
 21
-2.1417117063457596
  0
LINE
  8
____
 62
     7
  6
continuous
 10
-0.027109412939580579
 20
-2.1417117063457596
 11
-0.06794500731406572
 21
-2.2256807260276119
  0
LINE
  8
____
 62
     7
  6
continuous
 10
-0.06794500731406572
 20
-2.2256807260276119
 11
-0.11191455848383214
 21
-2.3104265569178111
  0
LINE
  8
____
 62
     7
  6
continuous
 10
-0.11191455848383214
 20
-2.3104265569178111
 11
-0.15745108805126051
 21
-2.3955607934121659
  0
ENDBLK
  8
0
  0
BLOCK
  8
____
  2
BV_ATTRIBUTE2
 70
    64
 10
0.0
 20
0.0
 30
0.0
  0
LINE
  8
____
 62
     7
  6
continuous
 10
0
 20
0
 11
-0.084530570827283213
 21
-0.12884871498594919
  0
LINE
  8
____
 62
     7
  6
continuous
 10
-0.084530570827283213
 20
-0.12884871498594919
 11
-0.16608513704754557
 21
-0.2570115373122448
  0
LINE
  8
____
 62
     7
  6
continuous
 10
-0.16608513704754557
 20
-0.2570115373122448
 11
-0.24168769405382307
 21
-0.38380257431921194
  0
LINE
  8
____
 62
     7
  6
continuous
 10
-0.24168769405382307
 20
-0.38380257431921194
 11
-0.308362237239038
 21
-0.50853593334718283
  0
LINE
  8
____
 62
     7
  6
continuous
 10
-0.308362237239038
 20
-0.50853593334718283
 11
-0.3631327619961553
 21
-0.6305257217365039
  0
LINE
  8
____
 62
     7
  6
continuous
 10
-0.3631327619961553
 20
-0.6305257217365039
 11
-0.40302326371819674
 21
-0.74908604682749313
  0
LINE
  8
____
 62
     7
  6
continuous
 10
-0.40302326371819674
 20
-0.74908604682749313
 11
-0.42505773779816991
 21
-0.86353101596050408
  0
LINE
  8
____
 62
     7
  6
continuous
 10
-0.42505773779816991
 20
-0.86353101596050408
 11
-0.42626017962902552
 21
-0.97317473647585473
  0
LINE
  8
____
 62
     7
  6
continuous
 10
-0.42626017962902552
 20
-0.97317473647585473
 11
-0.40365458460372849
 21
-1.0773313157138986
  0
LINE
  8
____
 62
     7
  6
continuous
 10
-0.40365458460372849
 20
-1.0773313157138986
 11
-0.35426494811531484
 21
-1.175314861014968
  0
LINE
  8
____
 62
     7
  6
continuous
 10
-0.35426494811531484
 20
-1.175314861014968
 11
-0.32073127168627025
 21
-1.2197234993737212
  0
LINE
  8
____
 62
     7
  6
continuous
 10
-0.32073127168627025
 20
-1.2197234993737212
 11
-0.28192597026540511
 21
-1.2629313373113504
  0
LINE
  8
____
 62
     7
  6
continuous
 10
-0.28192597026540511
 20
-1.2629313373113504
 11
-0.23934014525939062
 21
-1.3052962092237266
  0
LINE
  8
____
 62
     7
  6
continuous
 10
-0.23934014525939062
 20
-1.3052962092237266
 11
-0.19446489807478429
 21
-1.3471759495067204
  0
LINE
  8
____
 62
     7
  6
continuous
 10
-0.19446489807478429
 20
-1.3471759495067204
 11
-0.14879133011817203
 21
-1.3889283925561955
  0
LINE
  8
____
 62
     7
  6
continuous
 10
-0.14879133011817203
 20
-1.3889283925561955
 11
-0.10381054279622504
 21
-1.4309113727679943
  0
LINE
  8
____
 62
     7
  6
continuous
 10
-0.10381054279622504
 20
-1.4309113727679943
 11
-0.061013637515543451
 21
-1.4734827245380089
  0
LINE
  8
____
 62
     7
  6
continuous
 10
-0.061013637515543451
 20
-1.4734827245380089
 11
-0.021891715682741619
 21
-1.5170002822620887
  0
LINE
  8
____
 62
     7
  6
continuous
 10
-0.021891715682741619
 20
-1.5170002822620887
 11
0.012064121295594532
 21
-1.5618218803360975
  0
LINE
  8
____
 62
     7
  6
continuous
 10
0.012064121295594532
 20
-1.5618218803360975
 11
0.039362772012836444
 21
-1.6083053531558988
  0
LINE
  8
____
 62
     7
  6
continuous
 10
0.039362772012836444
 20
-1.6083053531558988
 11
0.064340270339073413
 21
-1.6759613374628088
  0
LINE
  8
____
 62
     7
  6
continuous
 10
0.064340270339073413
 20
-1.6759613374628088
 11
0.075214963086551734
 21
-1.747112972207205
  0
LINE
  8
____
 62
     7
  6
continuous
 10
0.075214963086551734
 20
-1.747112972207205
 11
0.073553828652947573
 21
-1.8213718517849316
  0
LINE
  8
____
 62
     7
  6
continuous
 10
0.073553828652947573
 20
-1.8213718517849316
 11
0.060923845435908675
 21
-1.8983495705918116
  0
LINE
  8
____
 62
     7
  6
continuous
 10
0.060923845435908675
 20
-1.8983495705918116
 11
0.038891991833054362
 21
-1.9776577230236825
  0
LINE
  8
____
 62
     7
  6
continuous
 10
0.038891991833054362
 20
-1.9776577230236825
 11
0.0090252462420323809
 21
-2.0589079034763813
  0
LINE
  8
____
 62
     7
  6
continuous
 10
0.0090252462420323809
 20
-2.0589079034763813
 11
-0.027109412939580579
 21
-2.1417117063457596
  0
LINE
  8
____
 62
     7
  6
continuous
 10
-0.027109412939580579
 20
-2.1417117063457596
 11
-0.06794500731406572
 21
-2.2256807260276119
  0
LINE
  8
____
 62
     7
  6
continuous
 10
-0.06794500731406572
 20
-2.2256807260276119
 11
-0.11191455848383214
 21
-2.3104265569178111
  0
LINE
  8
____
 62
     7
  6
continuous
 10
-0.11191455848383214
 20
-2.3104265569178111
 11
-0.15745108805126051
 21
-2.3955607934121659
  0
ENDBLK
  8
0
  0
BLOCK
  8
____
  2
BV_ATTRIBUTE3
 70
    64
 10
0.0
 20
0.0
 30
0.0
  0
LINE
  8
____
 62
     4
  6
continuous
 10
0
 20
0
 11
-0.26047226650039335
 21
1.4772116295183082
  0
LINE
  8
____
 62
     4
  6
continuous
 10
0
 20
0
 11
0.26047226650039335
 21
1.4772116295183082
  0
LINE
  8
____
 62
     4
  6
continuous
 10
0
 20
20.00000000000049
 11
0.26047226650039335
 21
18.522788370482182
  0
LINE
  8
____
 62
     4
  6
continuous
 10
0
 20
20.00000000000049
 11
-0.26047226650039335
 21
18.522788370482182
  0
LINE
  8
____
 62
     4
  6
continuous
 10
0
 20
20.00000000000049
 11
0
 21
0
  0
TEXT
  8
____
 62
     7
 10
-0.50000151460891118
 20
6.9999987714029288
 40
2.4096385542168677
 41
1
  1
２００
  7
KANJI
 50
90.000002504478161
  72
    5
  11
-0.50000177687724801
  21
12.999998771402922
  0
ENDBLK
  8
0
  0
BLOCK
  8
____
  2
BV_ATTRIBUTE4
 70
    64
 10
0.0
 20
0.0
 30
0.0
  0
LINE
  8
____
 62
     4
  6
continuous
 10
0
 20
0
 11
0.26047226650039335
 21
-1.4772116295183082
  0
LINE
  8
____
 62
     4
  6
continuous
 10
0
 20
0
 11
-0.26047226650039335
 21
-1.4772116295183082
  0
LINE
  8
____
 62
     4
  6
continuous
 10
0
 20
-4.9999999999999076
 11
-0.26047226650039335
 21
-3.5227883704815994
  0
LINE
  8
____
 62
     4
  6
continuous
 10
0
 20
-4.9999999999999076
 11
0.26047226650039335
 21
-3.5227883704815994
  0
LINE
  8
____
 62
     4
  6
continuous
 10
0
 20
-4.9999999999999076
 11
0
 21
0
  0
TEXT
  8
____
 62
     7
 10
-0.50000151460886855
 20
-4.5000012285974691
 40
2.4096385542168677
 41
1
  1
５０
  7
KANJI
 50
90.000002504478161
  72
    5
  11
-0.5000016894544288
  21
-0.5000012285974762
  0
ENDBLK
  8
0
  0
BLOCK
  8
____
  2
BV_ATTRIBUTE5
 70
    64
 10
0.0
 20
0.0
 30
0.0
  0
LINE
  8
____
 62
     4
  6
continuous
 10
0
 20
0
 11
-0.26047226650040045
 21
1.4772116295183082
  0
LINE
  8
____
 62
     4
  6
continuous
 10
0
 20
0
 11
0.26047226650038624
 21
1.4772116295183082
  0
LINE
  8
____
 62
     4
  6
continuous
 10
0
 20
10.000000000003752
 11
0.26047226650038624
 21
8.522788370485415
  0
LINE
  8
____
 62
     4
  6
continuous
 10
0
 20
10.000000000003752
 11
-0.26047226650040045
 21
8.522788370485415
  0
LINE
  8
____
 62
     4
  6
continuous
 10
0
 20
10.000000000003752
 11
0
 21
0
  0
TEXT
  8
____
 62
     7
 10
-0.50000151460892539
 20
2.0000038633490647
 40
2.4096385542168677
 41
1
  1
１００
  7
KANJI
 50
90.000002504478161
  72
    5
  11
-0.50000177687726932
  21
8.0000038633490647
  0
ENDBLK
  8
0
  0
BLOCK
  8
____
  2
BV_ATTRIBUTE6
 70
    64
 10
0.0
 20
0.0
 30
0.0
  0
LINE
  8
____
 62
     4
  6
continuous
 10
0
 20
0
 11
-0.26047226650040045
 21
1.4772116295183224
  0
LINE
  8
____
 62
     4
  6
continuous
 10
0
 20
0
 11
0.26047226650038624
 21
1.4772116295183224
  0
LINE
  8
____
 62
     4
  6
continuous
 10
0
 20
6.0000000000000711
 11
0.26047226650038624
 21
4.5227883704817486
  0
LINE
  8
____
 62
     4
  6
continuous
 10
0
 20
6.0000000000000711
 11
-0.26047226650040045
 21
4.5227883704817486
  0
LINE
  8
____
 62
     4
  6
continuous
 10
0
 20
6.0000000000000711
 11
0
 21
0
  0
TEXT
  8
____
 62
     7
 10
-0.50000151460892539
 20
1.0000038633491357
 40
2.4096385542168677
 41
1
  1
６０
  7
KANJI
 50
90.000002504478161
  72
    5
  11
-0.50000168945447854
  21
5.0000038633491357
  0
ENDBLK
  8
0
  0
BLOCK
  8
____
  2
BV_ATTRIBUTE7
 70
    64
 10
0.0
 20
0.0
 30
0.0
  0
LINE
  8
____
 62
     4
  6
continuous
 10
0
 20
0
 11
-0.26047226650040045
 21
1.4772116295183082
  0
LINE
  8
____
 62
     4
  6
continuous
 10
0
 20
0
 11
0.26047226650038624
 21
1.4772116295183082
  0
LINE
  8
____
 62
     4
  6
continuous
 10
0
 20
6.0000000000003979
 11
0.26047226650038624
 21
4.5227883704820897
  0
LINE
  8
____
 62
     4
  6
continuous
 10
0
 20
6.0000000000003979
 11
-0.26047226650040045
 21
4.5227883704820897
  0
LINE
  8
____
 62
     4
  6
continuous
 10
0
 20
6.0000000000003979
 11
0
 21
0
  0
TEXT
  8
____
 62
     7
 10
-0.50000151460892539
 20
0.9999987714069789
 40
2.4096385542168677
 41
1
  1
６０
  7
KANJI
 50
90.000002504478161
  72
    5
  11
-0.50000168945447854
  21
4.9999987714069789
  0
ENDBLK
  8
0
  0
BLOCK
  8
____
  2
BV_ATTRIBUTE8
 70
    64
 10
0.0
 20
0.0
 30
0.0
  0
LINE
  8
____
 62
     4
  6
continuous
 10
0
 20
0
 11
-0.26047226650040045
 21
1.4772116295183082
  0
LINE
  8
____
 62
     4
  6
continuous
 10
0
 20
0
 11
0.26047226650038624
 21
1.4772116295183082
  0
LINE
  8
____
 62
     4
  6
continuous
 10
0
 20
9.999999999995552
 11
0.26047226650038624
 21
8.5227883704772438
  0
LINE
  8
____
 62
     4
  6
continuous
 10
0
 20
9.999999999995552
 11
-0.26047226650040045
 21
8.5227883704772438
  0
LINE
  8
____
 62
     4
  6
continuous
 10
0
 20
9.999999999995552
 11
0
 21
0
  0
TEXT
  8
____
 62
     7
 10
-0.50000151460892539
 20
1.9999987714025309
 40
2.4096385542168677
 41
1
  1
１００
  7
KANJI
 50
90.000002504478161
  72
    5
  11
-0.50000177687726932
  21
7.9999987714025238
  0
ENDBLK
  8
0
  0
BLOCK
  8
____
  2
BV_ATTRIBUTE9
 70
    64
 10
0.0
 20
0.0
 30
0.0
  0
LINE
  8
____
 62
     4
  6
continuous
 10
0
 20
0
 11
-0.26047226650040045
 21
1.4772116295183224
  0
LINE
  8
____
 62
     4
  6
continuous
 10
0
 20
0
 11
0.26047226650038624
 21
1.4772116295183224
  0
LINE
  8
____
 62
     4
  6
continuous
 10
0
 20
4.9999999999983658
 11
0.26047226650038624
 21
3.5227883704800433
  0
LINE
  8
____
 62
     4
  6
continuous
 10
0
 20
4.9999999999983658
 11
-0.26047226650040045
 21
3.5227883704800433
  0
LINE
  8
____
 62
     4
  6
continuous
 10
0
 20
4.9999999999983658
 11
0
 21
0
  0
TEXT
  8
____
 62
     7
 10
-0.50000151460687903
 20
0.50000386335041469
 40
2.4096385542168677
 41
1
  1
５０
  7
KANJI
 50
90.000002504478161
  72
    5
  11
-0.50000168945243217
  21
4.5000038633504147
  0
ENDBLK
  8
0
  0
BLOCK
  8
____
  2
BV_ATTRIBUTE10
 70
    64
 10
0.0
 20
0.0
 30
0.0
  0
LINE
  8
____
 62
     4
  6
continuous
 10
0
 20
0
 11
-0.26047226650039335
 21
1.4772116295183082
  0
LINE
  8
____
 62
     4
  6
continuous
 10
0
 20
0
 11
0.26047226650039335
 21
1.4772116295183082
  0
LINE
  8
____
 62
     4
  6
continuous
 10
0
 20
86.305207310400874
 11
0.26047226650039335
 21
84.827995680882537
  0
LINE
  8
____
 62
     4
  6
continuous
 10
0
 20
86.305207310400874
 11
-0.26047226650039335
 21
84.827995680882537
  0
LINE
  8
____
 62
     4
  6
continuous
 10
0
 20
86.305207310400874
 11
0
 21
0
  0
TEXT
  8
____
 62
     7
 10
-0.50000151460891118
 20
39.1525988690587
 40
2.4096385542168677
 41
1
  1
１２００
  7
KANJI
 50
90.000002504478161
  72
    5
  11
-0.50000186430003168
  21
47.152598869058686
  0
ENDBLK
  8
0
  0
BLOCK
  8
____
  2
BV_ATTRIBUTE11
 70
    64
 10
0.0
 20
0.0
 30
0.0
  0
LINE
  8
____
 62
     4
  6
continuous
 10
0
 20
0
 11
0.26047226650039335
 21
-1.4772116295183366
  0
LINE
  8
____
 62
     4
  6
continuous
 10
0
 20
0
 11
-0.26047226650039335
 21
-1.4772116295183366
  0
LINE
  8
____
 62
     4
  6
continuous
 10
0
 20
-81.305207310400974
 11
-0.26047226650039335
 21
-79.827995680882665
  0
LINE
  8
____
 62
     4
  6
continuous
 10
0
 20
-81.305207310400974
 11
0.26047226650039335
 21
-79.827995680882665
  0
LINE
  8
____
 62
     4
  6
continuous
 10
0
 20
-81.305207310400974
 11
0
 21
0
  0
TEXT
  8
____
 62
     7
 10
-0.50000151460886855
 20
-44.652608441342181
 40
2.4096385542168677
 41
1
  1
１１５０
  7
KANJI
 50
90.000002504478161
  72
    5
  11
-0.50000186429998905
  21
-36.652608441342196
  0
ENDBLK
  8
0
  0
BLOCK
  8
____
  2
BV_ATTRIBUTE12
 70
    64
 10
0.0
 20
0.0
 30
0.0
  0
LINE
  8
____
 62
     4
  6
continuous
 10
0
 20
0
 11
-0.26047226650040045
 21
1.4772116295183082
  0
LINE
  8
____
 62
     4
  6
continuous
 10
0
 20
0
 11
0.26047226650038624
 21
1.4772116295183082
  0
LINE
  8
____
 62
     4
  6
continuous
 10
0
 20
49.305207310401201
 11
0.26047226650038624
 21
47.827995680882879
  0
LINE
  8
____
 62
     4
  6
continuous
 10
0
 20
49.305207310401201
 11
-0.26047226650040045
 21
47.827995680882879
  0
LINE
  8
____
 62
     4
  6
continuous
 10
0
 20
49.305207310401201
 11
0
 21
0
  0
TEXT
  8
____
 62
     7
 10
-0.50000151460892539
 20
21.652598869062842
 40
2.4096385542168677
 41
1
  1
８３０
  7
KANJI
 50
90.000002504478161
  72
    5
  11
-0.50000177687726932
  21
27.652598869062842
  0
ENDBLK
  8
0
  0
BLOCK
  8
____
  2
BV_ATTRIBUTE13
 70
    64
 10
0.0
 20
0.0
 30
0.0
  0
LINE
  8
____
 62
     4
  6
continuous
 10
0
 20
0
 11
-1.4772116295183082
 21
-0.26047226650040045
  0
LINE
  8
____
 62
     4
  6
continuous
 10
0
 20
0
 11
-1.4772116295183082
 21
0.26047226650038624
  0
LINE
  8
____
 62
     4
  6
continuous
 10
-7.5
 20
0
 11
-6.022788370481706
 21
0.26047226650038624
  0
LINE
  8
____
 62
     4
  6
continuous
 10
-7.5
 20
0
 11
-6.022788370481706
 21
-0.26047226650040045
  0
LINE
  8
____
 62
     4
  6
continuous
 10
-7.5
 20
0
 11
0
 21
0
  0
TEXT
  8
____
 62
     7
 10
-5.7500015146088685
 20
0.50000386334929203
 40
2.4096385542168677
 41
1
  1
７５
  7
KANJI
 50
0
  72
    5
  11
-1.7500015146088685
  21
0.50000386334929203
  0
ENDBLK
  8
0
  0
BLOCK
  8
____
  2
BV_ATTRIBUTE14
 70
    64
 10
0.0
 20
0.0
 30
0.0
  0
LINE
  8
____
 62
     4
  6
continuous
 10
0
 20
0
 11
3.0000000000009095
 21
0
  0
TEXT
  8
____
 62
     7
 10
-0.50000151460886855
 20
0.50000386334929203
 40
2.4096385542168677
 41
1
  1
３０
  7
KANJI
 50
0
  72
    5
  11
3.4999984853911315
  21
0.50000386334929203
  0
ENDBLK
  8
0
  0
BLOCK
  8
____
  2
BV_ATTRIBUTE15
 70
    64
 10
0.0
 20
0.0
 30
0.0
  0
LINE
  8
____
 62
     4
  6
continuous
 10
0
 20
0
 11
2.0000000000019043
 21
0
  0
TEXT
  8
____
 62
     7
 10
3.0668808096089606
 20
0.50000386334929203
 40
2.4096385542168677
 41
1
  1
２０
  7
KANJI
 50
0
  72
    5
  11
7.0668808096089606
  21
0.50000386334929203
  0
ENDBLK
  8
0
  0
BLOCK
  8
____
  2
BV_ATTRIBUTE16
 70
    64
 10
0.0
 20
0.0
 30
0.0
  0
LINE
  8
____
 62
     4
  6
continuous
 10
0
 20
0
 11
0.5130302149885182
 21
1.4095389311788722
  0
LINE
  8
____
 62
     4
  6
continuous
 10
0
 20
0
 11
0.96418141452981843
 21
1.1490666646784575
  0
LINE
  8
____
 62
     4
  6
continuous
 10
21.513555534414536
 20
3.517416183750754
 11
2.0307811805404441
 21
3.517416183750754
  0
LINE
  8
____
 62
     4
  6
continuous
 10
0
 20
0
 11
2.0307811805404441
 21
3.517416183750754
  0
TEXT
  8
____
 62
     7
 10
2.5135604971151082
 20
4.0174232969478965
 40
2.4096385542168677
 41
1
  1
バラスターキャップ
  7
KANJI
 50
0
  72
    5
  11
20.513560497115108
  21
4.0174232969478965
  0
ENDBLK
  8
0
  0
BLOCK
  8
____
  2
BV_ATTRIBUTE17
 70
    64
 10
0.0
 20
0.0
 30
0.0
  0
LINE
  8
____
 62
     4
  6
continuous
 10
0
 20
0
 11
0.96418141452981843
 21
-1.1490666646784575
  0
LINE
  8
____
 62
     4
  6
continuous
 10
0
 20
0
 11
0.5130302149885182
 21
-1.4095389311788722
  0
LINE
  8
____
 62
     4
  6
continuous
 10
16.562941214282787
 20
-8.3892859740967793
 11
4.8435565154535141
 21
-8.3892859740967793
  0
LINE
  8
____
 62
     4
  6
continuous
 10
0
 20
0
 11
4.8435565154535141
 21
-8.3892859740967793
  0
TEXT
  8
____
 62
     7
 10
5.5629442484932383
 20
-7.8892905702450093
 40
2.4096385542168677
 41
1
  1
ブラケット
  7
KANJI
 50
0
  72
    5
  11
15.562944248493238
  21
-7.8892905702450093
  0
ENDBLK
  8
0
  0
BLOCK
  8
____
  2
BV_ATTRIBUTE18
 70
    64
 10
0.0
 20
0.0
 30
0.0
  0
LINE
  8
____
 62
     4
  6
continuous
 10
0
 20
0
 11
-0.96418141452981843
 21
1.1490666646784575
  0
LINE
  8
____
 62
     4
  6
continuous
 10
0
 20
0
 11
-0.5130302149885182
 21
1.4095389311788722
  0
LINE
  8
____
 62
     4
  6
continuous
 10
-20.990348648660714
 20
16.675816265136774
 11
-9.6277870096334937
 21
16.675816265136802
  0
LINE
  8
____
 62
     4
  6
continuous
 10
0
 20
0
 11
-9.6277870096334937
 21
16.675816265136802
  0
TEXT
  8
____
 62
     7
 10
-19.990345752890121
 20
17.175820746695734
 40
2.4096385542168677
 41
1
  1
六角ボルト
  7
KANJI
 50
0
  72
    5
  11
-9.9903457528901214
  21
17.175820746695734
  0
ENDBLK
  8
0
  0
BLOCK
  8
____
  2
BV_ATTRIBUTE19
 70
    64
 10
0.0
 20
0.0
 30
0.0
  0
LINE
  8
____
 62
     4
  6
continuous
 10
0
 20
0
 11
-0.96418141452983264
 21
1.1490666646784575
  0
LINE
  8
____
 62
     4
  6
continuous
 10
0
 20
0
 11
-0.51303021498853241
 21
1.409538931178858
  0
LINE
  8
____
 62
     4
  6
continuous
 10
-10.553317502306257
 20
4.027093169280306
 11
-2.3250433253356846
 21
4.027093169280306
  0
LINE
  8
____
 62
     4
  6
continuous
 10
0
 20
0
 11
-2.3250433253356846
 21
4.027093169280306
  0
TEXT
  8
____
 62
     7
 10
-9.5533218271088742
 20
4.5270888590881952
 40
2.4096385542168677
 41
1
  1
支　柱
  7
KANJI
 50
0
  72
    5
  11
-3.5533218271088742
  21
4.5270888590881952
  0
ENDBLK
  8
0
  0
BLOCK
  8
____
  2
BV_ATTRIBUTE20
 70
    64
 10
0.0
 20
0.0
 30
0.0
  0
LINE
  8
____
 62
     4
  6
continuous
 10
0
 20
0
 11
0.51303021498847556
 21
1.409538931178858
  0
LINE
  8
____
 62
     4
  6
continuous
 10
0
 20
0
 11
0.96418141452981843
 21
1.1490666646784717
  0
LINE
  8
____
 62
     4
  6
continuous
 10
14.845260510600255
 20
4.9746445032287028
 11
2.8721123430617439
 21
4.9746445032287028
  0
LINE
  8
____
 62
     4
  6
continuous
 10
0
 20
0
 11
2.8721123430617439
 21
4.9746445032287028
  0
TEXT
  8
____
 62
     7
 10
3.8452621572580341
 20
5.4746416859016875
 40
2.4096385542168677
 41
1
  1
バラスター
  7
KANJI
 50
0
  72
    5
  11
13.845262157258034
  21
5.4746416859016875
  0
ENDBLK
  8
0
  0
BLOCK
  8
____
  2
BV_ATTRIBUTE21
 70
    64
 10
0.0
 20
0.0
 30
0.0
  0
LINE
  8
____
 62
     4
  6
continuous
 10
0
 20
0
 11
0.5130302149885182
 21
1.409538931178858
  0
LINE
  8
____
 62
     4
  6
continuous
 10
0
 20
0
 11
0.96418141452981843
 21
1.1490666646784717
  0
LINE
  8
____
 62
     4
  6
continuous
 10
17.491668021039288
 20
7.2450483727014188
 11
4.1829306282710093
 21
7.2450483727014188
  0
LINE
  8
____
 62
     4
  6
continuous
 10
0
 20
0
 11
4.1829306282710093
 21
7.2450483727014188
  0
TEXT
  8
____
 62
     7
 10
4.4916674610292233
 20
7.745048820235283
 40
2.4096385542168677
 41
1
  1
ボトムレール
  7
KANJI
 50
0
  72
    5
  11
16.491667461029223
  21
7.745048820235283
  0
ENDBLK
  8
0
  0
BLOCK
  8
____
  2
BV_ATTRIBUTE22
 70
    64
 10
0.0
 20
0.0
 30
0.0
  0
LINE
  8
____
 62
     4
  6
continuous
 10
0
 20
0
 11
0.96418141452981843
 21
-1.1490666646784646
  0
LINE
  8
____
 62
     4
  6
continuous
 10
0
 20
0
 11
0.5130302149885182
 21
-1.409538931178858
  0
LINE
  8
____
 62
     4
  6
continuous
 10
20.343917281948876
 20
-9.0015579696692143
 11
5.1970519169145035
 21
-9.0015579696692143
  0
LINE
  8
____
 62
     4
  6
continuous
 10
0
 20
0
 11
5.1970519169145035
 21
-9.0015579696692143
  0
TEXT
  8
____
 62
     7
 10
5.343913280312961
 20
-8.5015576250818654
 40
2.4096385542168677
 41
1
  1
φ６　水抜き穴
  7
KANJI
 50
0
  72
    5
  11
19.343913280312961
  21
-8.5015576250818654
  0
ENDBLK
  8
0
  0
BLOCK
  8
____
  2
BV_ATTRIBUTE23
 70
    64
 10
0.0
 20
0.0
 30
0.0
  0
LINE
  8
____
 62
     4
  6
continuous
 10
0
 20
0
 11
2
 21
0
  0
TEXT
  8
____
 62
     7
 10
2.6251938591352086
 20
0.49999016180662181
 40
2.4096385542168677
 41
1
  1
２０
  7
KANJI
 50
0
  72
    5
  11
6.6251938591352086
  21
0.49999016180662181
  0
ENDBLK
  8
0
  0
BLOCK
  8
____
  2
BV_ATTRIBUTE24
 70
    64
 10
0.0
 20
0.0
 30
0.0
  0
LINE
  8
____
 62
     4
  6
continuous
 10
0
 20
0
 11
0
 21
-2
  0
TEXT
  8
____
 62
     7
 10
-0.50000145336477431
 20
-6.6088965569433924
 40
2.4096385542168677
 41
1
  1
２０
  7
KANJI
 50
90.000002504478161
  72
    5
  11
-0.50000162821032745
  21
-2.6088965569433924
  0
ENDBLK
  8
0
  0
BLOCK
  8
____
  2
BV_ATTRIBUTE25
 70
    64
 10
0.0
 20
0.0
 30
0.0
  0
LINE
  8
____
 62
     4
  6
continuous
 10
0
 20
0
 11
0.51303021498850399
 21
1.4095389311788722
  0
LINE
  8
____
 62
     4
  6
continuous
 10
0
 20
0
 11
0.96418141452977579
 21
1.1490666646784859
  0
LINE
  8
____
 62
     4
  6
continuous
 10
20.467658892581483
 20
11.95714797167625
 11
6.903462600187396
 21
11.95714797167625
  0
LINE
  8
____
 62
     4
  6
continuous
 10
0
 20
0
 11
6.903462600187396
 21
11.95714797167625
  0
TEXT
  8
____
 62
     7
 10
7.4676440866928147
 20
12.45715718366344
 40
2.4096385542168677
 41
1
  1
支柱キャップ
  7
KANJI
 50
0
  72
    5
  11
19.467644086692815
  21
12.45715718366344
  0
ENDBLK
  8
0
  0
BLOCK
  8
____
  2
BV_ATTRIBUTE26
 70
    64
 10
0.0
 20
0.0
 30
0.0
  0
LINE
  8
____
 62
     4
  6
continuous
 10
0
 20
0
 11
-0.96418141452980421
 21
1.1490666646784575
  0
LINE
  8
____
 62
     4
  6
continuous
 10
0
 20
0
 11
-0.51303021498850399
 21
1.409538931178858
  0
LINE
  8
____
 62
     4
  6
continuous
 10
-19.666138454505699
 20
5.0047458140771397
 11
-2.8894913429830922
 21
5.0047458140771397
  0
LINE
  8
____
 62
     4
  6
continuous
 10
0
 20
0
 11
-2.8894913429830922
 21
5.0047458140771397
  0
TEXT
  8
____
 62
     7
 10
-18.666138418343166
 20
5.5047458938121849
 40
2.4096385542168677
 41
1
  1
丸頭ボルト
  7
KANJI
 50
0
  72
    5
  11
-8.6661384183431664
  21
5.5047458938121849
  0
ENDBLK
  8
0
  0
BLOCK
  8
____
  2
BV_ATTRIBUTE27
 70
    64
 10
0.0
 20
0.0
 30
0.0
  0
LINE
  8
____
 62
     4
  6
continuous
 10
0
 20
0
 11
-1.4772116295182798
 21
-0.26047226650040045
  0
LINE
  8
____
 62
     4
  6
continuous
 10
0
 20
0
 11
-1.4772116295182798
 21
0.26047226650038624
  0
LINE
  8
____
 62
     4
  6
continuous
 10
-5
 20
0
 11
-3.5227883704816918
 21
0.26047226650038624
  0
LINE
  8
____
 62
     4
  6
continuous
 10
-5
 20
0
 11
-3.5227883704816918
 21
-0.26047226650040045
  0
LINE
  8
____
 62
     4
  6
continuous
 10
-5
 20
0
 11
0
 21
0
  0
TEXT
  8
____
 62
     7
 10
-4.5000146322397541
 20
0.49999430273970802
 40
2.4096385542168677
 41
1
  1
５０
  7
KANJI
 50
0
  72
    5
  11
-0.50001463223975406
  21
0.49999430273970802
  0
ENDBLK
  8
0
  0
BLOCK
  8
____
  2
BV_ATTRIBUTE28
 70
    64
 10
0.0
 20
0.0
 30
0.0
  0
LINE
  8
____
 62
     4
  6
continuous
 10
0
 20
0
 11
-0.26047226650044308
 21
1.4772116295183082
  0
LINE
  8
____
 62
     4
  6
continuous
 10
0
 20
0
 11
0.26047226650044308
 21
1.4772116295183082
  0
LINE
  8
____
 62
     4
  6
continuous
 10
0
 20
7.5
 11
0.26047226650044308
 21
6.0227883704816918
  0
LINE
  8
____
 62
     4
  6
continuous
 10
0
 20
7.5
 11
-0.26047226650044308
 21
6.0227883704816918
  0
LINE
  8
____
 62
     4
  6
continuous
 10
0
 20
7.5
 11
0
 21
0
  0
TEXT
  8
____
 62
     7
 10
-0.49999021817725975
 20
1.7500004062553884
 40
2.4096385542168677
 41
1
  1
７５
  7
KANJI
 50
90.000002504478161
  72
    5
  11
-0.4999903930228129
  21
5.7500004062553813
  0
ENDBLK
  8
0
  0
BLOCK
  8
____
  2
BV_ATTRIBUTE29
 70
    64
 10
0.0
 20
0.0
 30
0.0
  0
LINE
  8
____
 62
     4
  6
continuous
 10
0
 20
0
 11
0.29999999999998295
 21
0
  0
TEXT
  8
____
 62
     7
 10
1.5237402505727289
 20
0.5000004062554666
 40
2.4096385542168677
 41
1
  1
３
  7
KANJI
 50
0
  72
    5
  11
3.5237402505727289
  21
0.5000004062554666
  0
ENDBLK
  8
0
  0
BLOCK
  8
____
  2
BV_ATTRIBUTE30
 70
    64
 10
0.0
 20
0.0
 30
0.0
  0
LINE
  8
____
 62
     4
  6
continuous
 10
0
 20
0
 11
0
 21
-0.35000000000000142
  0
TEXT
  8
____
 62
     7
 10
-0.50001463223975406
 20
-6.9934383144477366
 40
2.4096385542168677
 41
1
  1
３．５
  7
KANJI
 50
90.000002504478161
  72
    5
  11
-0.500014894508098
  21
-0.99343831444774366
  0
ENDBLK
  8
0
  0
BLOCK
  8
____
  2
BV_ATTRIBUTE31
 70
    64
 10
0.0
 20
0.0
 30
0.0
  0
LINE
  8
____
 62
     4
  6
continuous
 10
0
 20
0
 11
0.26047226650041466
 21
-1.4772116295183082
  0
LINE
  8
____
 62
     4
  6
continuous
 10
0
 20
0
 11
-0.26047226650040045
 21
-1.4772116295183082
  0
LINE
  8
____
 62
     4
  6
continuous
 10
0
 20
-24.00000000000324
 11
-0.26047226650040045
 21
-22.522788370484932
  0
LINE
  8
____
 62
     4
  6
continuous
 10
0
 20
-24.00000000000324
 11
0.26047226650041466
 21
-22.522788370484932
  0
LINE
  8
____
 62
     4
  6
continuous
 10
0
 20
-24.00000000000324
 11
0
 21
0
  0
TEXT
  8
____
 62
     7
 10
-0.50000456577041064
 20
-15.999998023830329
 40
2.4096385542168677
 41
1
  1
１２００
  7
KANJI
 50
90.000002504478161
  72
    5
  11
-0.50000491546153114
  21
-7.9999980238303294
  0
ENDBLK
  8
0
  0
BLOCK
  8
____
  2
BV_ATTRIBUTE32
 70
    64
 10
0.0
 20
0.0
 30
0.0
  0
LINE
  8
____
 62
     4
  6
continuous
 10
0
 20
0
 11
-1.4772116295183082
 21
-0.26047226650038624
  0
LINE
  8
____
 62
     4
  6
continuous
 10
0
 20
0
 11
-1.4772116295183082
 21
0.26047226650041466
  0
LINE
  8
____
 62
     4
  6
continuous
 10
-40.000000000000085
 20
0
 11
-38.522788370481749
 21
0.26047226650041466
  0
LINE
  8
____
 62
     4
  6
continuous
 10
-40.000000000000085
 20
0
 11
-38.522788370481749
 21
-0.26047226650038624
  0
LINE
  8
____
 62
     4
  6
continuous
 10
-40.000000000000085
 20
0
 11
0
 21
0
  0
TEXT
  8
____
 62
     7
 10
-24.00000193727152
 20
0.49998885725753439
 40
2.4096385542168677
 41
1
  1
２０００
  7
KANJI
 50
0
  72
    5
  11
-16.00000193727152
  21
0.49998885725753439
  0
ENDBLK
  8
0
  0
BLOCK
  8
____
  2
BV_ATTRIBUTE33
 70
    64
 10
0.0
 20
0.0
 30
0.0
  0
LINE
  8
____
 62
     4
  6
continuous
 10
0
 20
0
 11
-1.4772116295183082
 21
-0.26047226650038624
  0
LINE
  8
____
 62
     4
  6
continuous
 10
0
 20
0
 11
-1.4772116295183082
 21
0.26047226650041466
  0
LINE
  8
____
 62
     4
  6
continuous
 10
-42.000000000000341
 20
0
 11
-40.522788370482033
 21
0.26047226650041466
  0
LINE
  8
____
 62
     4
  6
continuous
 10
-42.000000000000341
 20
0
 11
-40.522788370482033
 21
-0.26047226650038624
  0
LINE
  8
____
 62
     4
  6
continuous
 10
-42.000000000000341
 20
0
 11
0
 21
0
  0
TEXT
  8
____
 62
     7
 10
-22.000001937271435
 20
0.49998885725753439
 40
2.4096385542168677
 41
1
  1
Ｌ
  7
KANJI
 50
0
  72
    5
  11
-20.000001937271435
  21
0.49998885725753439
  0
ENDBLK
  8
0
  0
BLOCK
  8
____
  2
BV_ATTRIBUTE34
 70
    64
 10
0.0
 20
0.0
 30
0.0
  0
LINE
  8
____
 62
     4
  6
continuous
 10
0
 20
0
 11
-1.4772116295183082
 21
-0.26047226650041466
  0
LINE
  8
____
 62
     4
  6
continuous
 10
0
 20
0
 11
-1.4772116295183082
 21
0.26047226650038624
  0
LINE
  8
____
 62
     4
  6
continuous
 10
-39.999999999994714
 20
0
 11
-38.522788370476405
 21
0.26047226650038624
  0
LINE
  8
____
 62
     4
  6
continuous
 10
-39.999999999994714
 20
0
 11
-38.522788370476405
 21
-0.26047226650041466
  0
LINE
  8
____
 62
     4
  6
continuous
 10
-39.999999999994714
 20
0
 11
0
 21
0
  0
TEXT
  8
____
 62
     7
 10
-24.00000193727152
 20
0.49998885725759123
 40
2.4096385542168677
 41
1
  1
２０００
  7
KANJI
 50
0
  72
    5
  11
-16.00000193727152
  21
0.49998885725759123
  0
ENDBLK
  8
0
  0
BLOCK
  8
____
  2
BV_ATTRIBUTE35
 70
    64
 10
0.0
 20
0.0
 30
0.0
  0
LINE
  8
____
 62
     4
  6
continuous
 10
0
 20
0
 11
1.2499999999998579
 21
0
  0
TEXT
  8
____
 62
     7
 10
-8.4061738122715042
 20
0.49998885725759123
 40
2.4096385542168677
 41
1
  1
６２．５
  7
KANJI
 50
0
  72
    5
  11
-0.40617381227150418
  21
0.49998885725759123
  0
ENDBLK
  8
0
  0
BLOCK
  8
____
  2
BV_ATTRIBUTE36
 70
    64
 10
0.0
 20
0.0
 30
0.0
  0
LINE
  8
____
 62
     4
  6
continuous
 10
0
 20
0
 11
1.2500000000001421
 21
0
  0
TEXT
  8
____
 62
     7
 10
2.1557011877286243
 20
0.49998885725759123
 40
2.4096385542168677
 41
1
  1
６２．５
  7
KANJI
 50
0
  72
    5
  11
10.155701187728624
  21
0.49998885725759123
  0
ENDBLK
  8
0
  0
BLOCK
  8
____
  2
BV_ATTRIBUTE37
 70
    64
 10
0.0
 20
0.0
 30
0.0
  0
LINE
  8
____
 62
     4
  6
continuous
 10
0
 20
0
 11
-1.4772116295183082
 21
-0.26047226650041466
  0
LINE
  8
____
 62
     4
  6
continuous
 10
0
 20
0
 11
-1.4772116295183082
 21
0.26047226650038624
  0
LINE
  8
____
 62
     4
  6
continuous
 10
-37.5
 20
0
 11
-36.022788370481692
 21
0.26047226650038624
  0
LINE
  8
____
 62
     4
  6
continuous
 10
-37.5
 20
0
 11
-36.022788370481692
 21
-0.26047226650041466
  0
LINE
  8
____
 62
     4
  6
continuous
 10
-37.5
 20
0
 11
0
 21
0
  0
TEXT
  8
____
 62
     7
 10
-29.750001937271378
 20
0.49998885725759123
 40
2.4096385542168677
 41
1
  1
１５＠１２５＝１８７５
  7
KANJI
 50
0
  72
    5
  11
-7.750001937271378
  21
0.49998885725759123
  0
ENDBLK
  8
0
  0
BLOCK
  8
____
  2
BV_ATTRIBUTE38
 70
    64
 10
0.0
 20
0.0
 30
0.0
  0
LINE
  8
____
 62
     4
  6
continuous
 10
0
 20
0
 11
-1.4772116295183082
 21
-0.26047226650038624
  0
LINE
  8
____
 62
     4
  6
continuous
 10
0
 20
0
 11
-1.4772116295183082
 21
0.26047226650041466
  0
LINE
  8
____
 62
     4
  6
continuous
 10
-40.000000000000085
 20
0
 11
-38.522788370481777
 21
0.26047226650041466
  0
LINE
  8
____
 62
     4
  6
continuous
 10
-40.000000000000085
 20
0
 11
-38.522788370481777
 21
-0.26047226650038624
  0
LINE
  8
____
 62
     4
  6
continuous
 10
-40.000000000000085
 20
0
 11
0
 21
0
  0
TEXT
  8
____
 62
     7
 10
-21.500001937271435
 20
0.49998885725753439
 40
2.4096385542168677
 41
1
  1
Ｌ1
  7
KANJI
 50
0
  72
    5
  11
-18.500001937271435
  21
0.49998885725753439
  0
ENDBLK
  8
0
  0
BLOCK
  8
____
  2
BV_ATTRIBUTE39
 70
    64
 10
0.0
 20
0.0
 30
0.0
  0
LINE
  8
____
 62
     4
  6
continuous
 10
0
 20
0
 11
-2.0000000000002558
 21
0
  0
TEXT
  8
____
 62
     7
 10
-6.7473652185213524
 20
0.49998885725753439
 40
2.4096385542168677
 41
1
  1
Ｌ2
  7
KANJI
 50
0
  72
    5
  11
-3.7473652185213524
  21
0.49998885725753439
  0
ENDBLK
  8
0
  0
ENDSEC
  0
SECTION
  2
ENTITIES
  0
LINE
  8
____
 62
     3
  6
continuous
 10
94.100721729453539
 20
70.070740974686814
 11
94.100721729452573
 21
64.070740974687354
  0
LINE
  8
____
 62
     3
  6
continuous
 10
91.10072172945253
 20
64.070740974687084
 11
94.100721729452573
 21
64.070740974687354
  0
LINE
  8
____
 62
     3
  6
continuous
 10
91.10072172945253
 20
70.070740974687169
 11
94.100721729453539
 21
70.070740974686814
  0
LINE
  8
____
 62
     3
  6
continuous
 10
91.100721729452488
 20
64.320740974688263
 11
93.850721729453483
 21
64.320740974688533
  0
LINE
  8
____
 62
     3
  6
continuous
 10
93.850721729453483
 20
64.320740974688533
 11
93.850721729454037
 21
69.82074097468653
  0
LINE
  8
____
 62
     3
  6
continuous
 10
93.850721729454037
 20
69.82074097468653
 11
91.100721729452488
 21
69.820740974686899
  0
LINE
  8
____
 62
     4
  6
continuous
 10
93.600721729453213
 20
69.820740974689812
 11
93.600721729452573
 21
69.520740974687087
  0
LINE
  8
____
 62
     4
  6
continuous
 10
93.600721729452573
 20
69.520740974687087
 11
91.700721729450493
 21
69.520740974686348
  0
LINE
  8
____
 62
     4
  6
continuous
 10
91.400721729450396
 20
69.220740974686265
 11
91.400721729449941
 21
64.920740974685529
  0
LINE
  8
____
 62
     4
  6
continuous
 10
91.70072172945035
 20
64.620740974689809
 11
93.600721729430433
 21
64.620740974684438
  0
LINE
  8
____
 62
     4
  6
continuous
 10
93.600721729453213
 20
64.320740974682167
 11
93.600721729430433
 21
64.620740974684438
  0
LINE
  8
____
 62
     4
  6
continuous
 10
82.450721729452624
 20
67.806862567902996
 11
82.450721729452624
 21
66.334619381469523
  0
LINE
  8
____
 62
     4
  6
continuous
 10
83.150721729452627
 20
68.052236432308618
 11
83.150721729452627
 21
66.089245517063915
  0
LINE
  8
____
 62
     4
  6
continuous
 10
82.592388396119276
 20
68.052236432308618
 11
83.150721729452627
 21
68.052236432308618
  0
LINE
  8
____
 62
     4
  6
continuous
 10
82.592388396119276
 20
67.561488703497488
 11
83.150721729452627
 21
67.561488703497488
  0
LINE
  8
____
 62
     4
  6
continuous
 10
82.592388396119276
 20
66.579993245875045
 11
83.150721729452627
 21
66.579993245875045
  0
LINE
  8
____
 62
     4
  6
continuous
 10
82.592388396119276
 20
66.089245517063915
 11
83.150721729452627
 21
66.089245517063915
  0
LINE
  8
____
 62
     4
  6
continuous
 10
83.400721729452627
 20
68.120740974686257
 11
83.400721729452627
 21
66.020740974686262
  0
LINE
  8
____
 62
     4
  6
continuous
 10
83.150721729452627
 20
67.990740974686247
 11
83.400721729452627
 21
67.990740974686247
  0
LINE
  8
____
 62
     4
  6
continuous
 10
83.150721729452627
 20
66.150740974686286
 11
83.400721729452627
 21
66.150740974686286
  0
LINE
  8
____
 62
     4
  6
continuous
 10
83.150721729452627
 20
67.220740974686265
 11
83.400721729452627
 21
67.120740974686257
  0
LINE
  8
____
 62
     4
  6
continuous
 10
83.150721729452627
 20
67.020740974686262
 11
83.400721729452627
 21
66.920740974686268
  0
LINE
  8
____
 62
     4
  6
continuous
 10
83.60072172945263
 20
68.120740974686257
 11
83.60072172945263
 21
66.020740974686262
  0
LINE
  8
____
 62
     4
  6
continuous
 10
83.400721729452627
 20
68.120740974686257
 11
83.60072172945263
 21
68.120740974686257
  0
LINE
  8
____
 62
     4
  6
continuous
 10
83.400721729452627
 20
66.020740974686262
 11
83.60072172945263
 21
66.020740974686262
  0
LINE
  8
____
 62
     4
  6
continuous
 10
92.300721729446934
 20
66.334619381469707
 11
92.300721729447119
 21
67.806862567903181
  0
LINE
  8
____
 62
     4
  6
continuous
 10
91.600721729446946
 20
66.020740974686532
 11
91.600721729447116
 21
68.120740974686541
  0
LINE
  8
____
 62
     4
  6
continuous
 10
92.15905506278024
 20
66.0892455170641
 11
91.600721729446946
 21
66.089245517064185
  0
LINE
  8
____
 62
     4
  6
continuous
 10
92.15905506278034
 20
66.579993245875229
 11
91.600721729446988
 21
66.579993245875315
  0
LINE
  8
____
 62
     4
  6
continuous
 10
92.159055062780425
 20
67.561488703497659
 11
91.600721729447073
 21
67.561488703497659
  0
LINE
  8
____
 62
     4
  6
continuous
 10
92.159055062780467
 20
68.052236432308788
 11
91.600721729447116
 21
68.052236432308888
  0
LINE
  8
____
 62
     4
  6
continuous
 10
91.400721729446943
 20
66.020740974686532
 11
91.400721729447127
 21
68.120740974686541
  0
LINE
  8
____
 62
     4
  6
continuous
 10
91.600721729446946
 20
66.020740974686532
 11
91.400721729446943
 21
66.020740974686532
  0
LINE
  8
____
 62
     4
  6
continuous
 10
91.600721729447116
 20
68.120740974686541
 11
91.400721729447127
 21
68.120740974686541
  0
LINE
  8
____
 62
     4
  6
line_font22
 10
81.166461850239529
 20
67.070740974685805
 11
92.471840497488586
 21
67.07074097468653
  0
LINE
  8
____
 62
     4
  6
continuous
 10
81.700721729419925
 20
66.570740974679623
 11
81.700721729443217
 21
67.570740974683986
  0
LINE
  8
____
 62
     4
  6
continuous
 10
82.450721729453306
 20
66.670740974679802
 11
81.600721729439755
 21
66.67074097466643
  0
LINE
  8
____
 62
     4
  6
continuous
 10
81.600721729444217
 20
67.470740974667436
 11
82.450721729453306
 21
67.470740974683437
  0
LINE
  8
____
 62
     4
  6
continuous
 10
81.700721729533939
 20
66.570740974679708
 11
82.450721729453349
 21
66.570740974685535
  0
LINE
  8
____
 62
     4
  6
continuous
 10
81.600721729439712
 20
66.670740974805767
 11
81.700721729533939
 21
66.570740974679708
  0
LINE
  8
____
 62
     4
  6
continuous
 10
81.600721729439712
 20
66.670740974805767
 11
81.600721729434255
 21
67.470740974719732
  0
LINE
  8
____
 62
     4
  6
continuous
 10
81.600721729434255
 20
67.470740974719732
 11
81.70072172954157
 21
67.570740974680902
  0
LINE
  8
____
 62
     4
  6
continuous
 10
81.70072172954157
 20
67.570740974680902
 11
82.450721729453349
 21
67.57074097468562
  0
LINE
  8
____
 62
     4
  6
continuous
 10
93.225721729456083
 20
70.230740974686668
 11
91.975721729456083
 21
70.230740974686753
  0
LINE
  8
____
 62
     4
  6
continuous
 10
93.225721729456041
 20
70.070740974686629
 11
91.975721729456041
 21
70.070740974686814
  0
LINE
  8
____
 62
     4
  6
continuous
 10
93.225721729456083
 20
70.230740974686668
 11
93.225721729456041
 21
70.070740974686629
  0
LINE
  8
____
 62
     4
  6
continuous
 10
91.975721729456083
 20
70.230740974686753
 11
91.975721729456041
 21
70.070740974686814
  0
LINE
  8
____
 62
     4
  6
continuous
 10
92.075721729456077
 20
70.230740974686753
 11
92.07572172945612
 21
70.352940162109235
  0
LINE
  8
____
 62
     4
  6
continuous
 10
93.125721729456075
 20
70.230740974686668
 11
93.125721729456131
 21
70.35294016210905
  0
LINE
  8
____
 62
     4
  6
continuous
 10
93.210721729454576
 20
63.76074097468841
 11
91.990721729454549
 21
63.760740974688318
  0
LINE
  8
____
 62
     4
  6
continuous
 10
93.210721729454576
 20
63.76074097468841
 11
93.210721729454519
 21
63.910740974688409
  0
LINE
  8
____
 62
     4
  6
continuous
 10
91.990721729454549
 20
63.760740974688318
 11
91.990721729454549
 21
63.910740974688316
  0
LINE
  8
____
 62
     4
  6
continuous
 10
93.225721729454577
 20
63.910740974688409
 11
91.975721729454577
 21
63.910740974688316
  0
LINE
  8
____
 62
     4
  6
continuous
 10
92.67572172945458
 20
63.760740974688318
 11
92.618029421762245
 21
63.910740974688316
  0
LINE
  8
____
 62
     4
  6
continuous
 10
92.575721729454585
 20
63.760740974688318
 11
92.51802942176225
 21
63.910740974688316
  0
LINE
  8
____
 62
     4
  6
continuous
 10
93.225721729454534
 20
64.070740974688448
 11
91.975721729454534
 21
64.070740974688263
  0
LINE
  8
____
 62
     4
  6
continuous
 10
93.225721729454577
 20
63.910740974688409
 11
93.225721729454534
 21
64.070740974688448
  0
LINE
  8
____
 62
     4
  6
continuous
 10
91.975721729454577
 20
63.910740974688316
 11
91.975721729454534
 21
64.070740974688263
  0
LINE
  8
____
 62
     4
  6
continuous
 10
92.350721729454577
 20
63.260740974688318
 11
92.850721729454577
 21
63.26074097468841
  0
LINE
  8
____
 62
     4
  6
continuous
 10
92.600721729454577
 20
63.405078541985723
 11
92.600721729454577
 21
63.760740974688318
  0
LINE
  8
____
 62
     4
  6
continuous
 10
93.100721729454577
 20
63.405078541985816
 11
93.100721729454577
 21
63.76074097468841
  0
LINE
  8
____
 62
     4
  6
continuous
 10
92.100721729454577
 20
63.405078541985723
 11
92.100721729454577
 21
63.760740974688318
  0
LINE
  8
____
 62
     4
  6
line_font22
 10
92.600721729461853
 20
62.656888990687506
 11
92.600721729454122
 21
70.947352166056177
  0
LINE
  8
____
 62
     4
  6
continuous
 10
92.900721729461125
 20
62.830740974704582
 11
92.30072172946268
 21
62.830740974696212
  0
LINE
  8
____
 62
     4
  6
continuous
 10
92.400721729473048
 20
62.730740974697667
 11
92.300721729464044
 21
62.830740974679571
  0
LINE
  8
____
 62
     4
  6
continuous
 10
92.80072172948978
 20
62.730740974693028
 11
92.400721729473048
 21
62.730740974697667
  0
LINE
  8
____
 62
     4
  6
continuous
 10
92.80072172948978
 20
62.730740974693028
 11
92.900721729462859
 21
62.830740974684936
  0
LINE
  8
____
 62
     4
  6
continuous
 10
92.400721729464223
 20
62.730740974683208
 11
92.400721729463399
 21
63.260740974669488
  0
LINE
  8
____
 62
     4
  6
continuous
 10
92.800721729462907
 20
62.730740974691393
 11
92.800721729462495
 21
63.260740974669488
  0
LINE
  8
____
 62
     4
  6
continuous
 10
92.300721729464044
 20
62.830740974679571
 11
92.300721729463675
 21
63.260740974669403
  0
LINE
  8
____
 62
     4
  6
continuous
 10
92.900721729462859
 20
62.830740974684936
 11
92.900721729462717
 21
63.260740974669488
  0
LINE
  8
____
 62
     4
  6
continuous
 10
92.900721729461395
 20
64.62074097468745
 11
92.900721729454759
 21
69.520740974689076
  0
LINE
  8
____
 62
     4
  6
continuous
 10
92.300721729462126
 20
64.620740974689085
 11
92.300721729455717
 21
69.520740974688991
  0
LINE
  8
____
 62
     4
  6
continuous
 10
92.400721729473048
 20
65.730740974697667
 11
92.300721729464044
 21
65.830740974679571
  0
LINE
  8
____
 62
     4
  6
continuous
 10
92.80072172948978
 20
65.730740974693035
 11
92.400721729473048
 21
65.730740974697667
  0
LINE
  8
____
 62
     4
  6
continuous
 10
92.80072172948978
 20
65.730740974693035
 11
92.900721729462859
 21
65.830740974684929
  0
LINE
  8
____
 62
     4
  6
continuous
 10
92.800721729461316
 20
64.62074097468772
 11
92.800721729460037
 21
65.730740974686299
  0
LINE
  8
____
 62
     4
  6
continuous
 10
92.400721729461949
 20
64.620740974688815
 11
92.400721729461083
 21
65.730740974690931
  0
LINE
  8
____
 62
     6
  6
continuous
 10
83.600721729452573
 20
29.070740974690853
 11
91.100721729452573
 21
29.070740974691081
  0
LINE
  8
____
 62
     7
  6
line_font22
 10
86.219868626893572
 20
54.070740974691219
 11
88.618225602734967
 21
54.070740974691262
  0
LINE
  8
____
 62
     6
  6
continuous
 10
90.750721729452493
 20
56.911953009830178
 11
90.750721729452664
 21
50.904518481562768
  0
LINE
  8
____
 62
     6
  6
continuous
 10
83.950721729452582
 20
57.249333321774202
 11
83.950721729452439
 21
51.241898793508881
  0
LINE
  8
____
 62
     2
  6
continuous
 10
94.100721729452573
 20
64.070740974687354
 11
94.100721729451948
 21
54.070740974691084
  0
LINE
  8
____
 62
     2
  6
continuous
 10
94.100721729451948
 20
54.070740974691084
 11
96.100721729462308
 21
54.070740974690992
  0
LINE
  8
____
 62
     4
  6
continuous
 10
93.850721729455486
 20
65.295740974690489
 11
93.850721729455486
 21
65.845740974690486
  0
LINE
  8
____
 62
     4
  6
continuous
 10
93.850721729455486
 20
65.295740974690489
 11
93.782346879575584
 21
65.295740974690489
  0
LINE
  8
____
 62
     4
  6
continuous
 10
93.850721729455486
 20
65.845740974690486
 11
93.78234687957567
 21
65.845740974690486
  0
LINE
  8
____
 62
     4
  6
continuous
 10
94.520721729432182
 20
65.674796512609518
 11
94.52072172943501
 21
65.466685436700388
  0
LINE
  8
____
 62
     4
  6
continuous
 10
94.420721729416272
 20
65.814949241456631
 11
94.420721729461562
 21
65.326532707920478
  0
LINE
  8
____
 62
     4
  6
line_font22
 10
94.683245659238921
 20
65.570740974691219
 11
93.57164025951954
 21
65.570740974690494
  0
LINE
  8
____
 62
     4
  6
continuous
 10
93.850721729455486
 20
68.295740974690489
 11
93.850721729455486
 21
68.845740974690486
  0
LINE
  8
____
 62
     4
  6
continuous
 10
93.850721729455486
 20
68.295740974690489
 11
93.782346879575584
 21
68.295740974690489
  0
LINE
  8
____
 62
     4
  6
continuous
 10
93.850721729455486
 20
68.845740974690486
 11
93.78234687957567
 21
68.845740974690486
  0
LINE
  8
____
 62
     4
  6
continuous
 10
94.520721729432182
 20
68.674796512609518
 11
94.52072172943501
 21
68.466685436700388
  0
LINE
  8
____
 62
     4
  6
continuous
 10
94.420721729416272
 20
68.814949241456631
 11
94.420721729461562
 21
68.326532707920478
  0
LINE
  8
____
 62
     4
  6
line_font22
 10
94.683245659238921
 20
68.570740974691219
 11
93.57164025951954
 21
68.570740974690494
  0
LINE
  8
____
 62
     7
  6
continuous
 10
93.038341077281871
 20
92.739809152511384
 11
97.383994621720035
 21
92.739809152511384
  0
LINE
  8
____
 62
     2
  6
continuous
 10
96.100721729462308
 20
54.070740974690992
 11
96.100721729460261
 21
92.739809152512066
  0
LINE
  8
____
 62
     2
  6
continuous
 10
95.980721729462331
 20
54.070740974690899
 11
95.980721729460328
 21
92.739809152512066
  0
LINE
  8
____
 62
     7
  6
continuous
 10
92.26685142138615
 20
92.7398091525111
 11
90.082980920692322
 21
92.739809152511484
  0
LINE
  8
____
 62
     7
  6
continuous
 10
90.082980920692322
 20
92.739809152511484
 11
90.082980920692279
 21
92.053685632119254
  0
LINE
  8
____
 62
     7
  6
continuous
 10
84.618462538212839
 20
93.425932672903002
 11
90.082980920692279
 21
92.053685632119254
  0
LINE
  8
____
 62
     7
  6
continuous
 10
84.618462538212839
 20
93.425932672903002
 11
84.618462538212839
 21
92.73980915251127
  0
LINE
  8
____
 62
     7
  6
continuous
 10
82.026242698759248
 20
92.739809152511384
 11
84.618462538212839
 21
92.73980915251127
  0
LINE
  8
____
 62
     6
  6
continuous
 10
83.60072172945263
 20
29.070740974690853
 11
83.60072172945263
 21
92.739809152511498
  0
LINE
  8
____
 62
     6
  6
continuous
 10
91.10072172945263
 20
29.070740974691081
 11
91.10072172945263
 21
92.739809152511114
  0
LINE
  8
____
 62
     6
  6
continuous
 10
83.400721729452584
 20
126.37594828508682
 11
91.300721729452576
 21
126.37594828508691
  0
LINE
  8
____
 62
     6
  6
continuous
 10
83.400721729445436
 20
127.17594828508636
 11
83.400721729452584
 21
126.37594828508682
  0
LINE
  8
____
 62
     6
  6
continuous
 10
83.600721729445482
 20
127.37594828508546
 11
91.100721729444487
 21
127.37594828508682
  0
LINE
  8
____
 62
     6
  6
continuous
 10
91.300721729444575
 20
127.17594828508682
 11
91.300721729452576
 21
126.37594828508691
  0
LINE
  8
____
 62
     4
  6
line_font22
 10
87.350721729453028
 20
127.27297374336258
 11
87.350721729453028
 21
126.48968450664407
  0
LINE
  8
____
 62
     4
  6
line_font22
 10
87.765660994139282
 20
126.87594828508628
 11
86.94220307861471
 21
126.87594828508628
  0
LINE
  8
____
 62
     4
  6
continuous
 10
87.223442508839454
 20
126.74866906447269
 11
87.478000950066573
 21
127.00322750569985
  0
LINE
  8
____
 62
     4
  6
continuous
 10
87.223442508839454
 20
127.00322750569985
 11
87.478000950066573
 21
126.74866906447269
  0
LINE
  8
____
 62
     3
  6
continuous
 10
94.100721729453539
 20
125.3759482850881
 11
94.100721729452573
 21
119.37594828508864
  0
LINE
  8
____
 62
     3
  6
continuous
 10
91.10072172945253
 20
119.37594828508837
 11
94.100721729452573
 21
119.37594828508864
  0
LINE
  8
____
 62
     3
  6
continuous
 10
91.10072172945253
 20
125.37594828508846
 11
94.100721729453539
 21
125.3759482850881
  0
LINE
  8
____
 62
     3
  6
continuous
 10
91.100721729452488
 20
119.62594828508955
 11
93.850721729453483
 21
119.62594828508982
  0
LINE
  8
____
 62
     3
  6
continuous
 10
93.850721729453483
 20
119.62594828508982
 11
93.850721729454037
 21
125.12594828508782
  0
LINE
  8
____
 62
     3
  6
continuous
 10
93.850721729454037
 20
125.12594828508782
 11
91.100721729452488
 21
125.12594828508819
  0
LINE
  8
____
 62
     4
  6
continuous
 10
93.600721729453213
 20
125.1259482850911
 11
93.600721729452573
 21
124.82594828508837
  0
LINE
  8
____
 62
     4
  6
continuous
 10
93.600721729452573
 20
124.82594828508837
 11
91.700721729450493
 21
124.82594828508763
  0
LINE
  8
____
 62
     4
  6
continuous
 10
91.400721729450396
 20
124.52594828508755
 11
91.400721729449941
 21
120.22594828508682
  0
LINE
  8
____
 62
     4
  6
continuous
 10
91.70072172945035
 20
119.9259482850911
 11
93.600721729430433
 21
119.92594828508572
  0
LINE
  8
____
 62
     4
  6
continuous
 10
93.600721729453213
 20
119.62594828508345
 11
93.600721729430433
 21
119.92594828508572
  0
LINE
  8
____
 62
     4
  6
continuous
 10
82.450721729452624
 20
123.11206987830428
 11
82.450721729452624
 21
121.63982669187081
  0
LINE
  8
____
 62
     4
  6
continuous
 10
83.150721729452627
 20
123.3574437427099
 11
83.150721729452627
 21
121.3944528274652
  0
LINE
  8
____
 62
     4
  6
continuous
 10
82.592388396119276
 20
123.3574437427099
 11
83.150721729452627
 21
123.3574437427099
  0
LINE
  8
____
 62
     4
  6
continuous
 10
82.592388396119276
 20
122.86669601389877
 11
83.150721729452627
 21
122.86669601389877
  0
LINE
  8
____
 62
     4
  6
continuous
 10
82.592388396119276
 20
121.88520055627633
 11
83.150721729452627
 21
121.88520055627633
  0
LINE
  8
____
 62
     4
  6
continuous
 10
82.592388396119276
 20
121.3944528274652
 11
83.150721729452627
 21
121.3944528274652
  0
LINE
  8
____
 62
     4
  6
continuous
 10
83.400721729452627
 20
123.42594828508754
 11
83.400721729452627
 21
121.32594828508755
  0
LINE
  8
____
 62
     4
  6
continuous
 10
83.150721729452627
 20
123.29594828508753
 11
83.400721729452627
 21
123.29594828508753
  0
LINE
  8
____
 62
     4
  6
continuous
 10
83.150721729452627
 20
121.45594828508757
 11
83.400721729452627
 21
121.45594828508757
  0
LINE
  8
____
 62
     4
  6
continuous
 10
83.150721729452627
 20
122.52594828508755
 11
83.400721729452627
 21
122.42594828508754
  0
LINE
  8
____
 62
     4
  6
continuous
 10
83.150721729452627
 20
122.32594828508755
 11
83.400721729452627
 21
122.22594828508755
  0
LINE
  8
____
 62
     4
  6
continuous
 10
83.60072172945263
 20
123.42594828508754
 11
83.60072172945263
 21
121.32594828508755
  0
LINE
  8
____
 62
     4
  6
continuous
 10
83.400721729452627
 20
123.42594828508754
 11
83.60072172945263
 21
123.42594828508754
  0
LINE
  8
____
 62
     4
  6
continuous
 10
83.400721729452627
 20
121.32594828508755
 11
83.60072172945263
 21
121.32594828508755
  0
LINE
  8
____
 62
     4
  6
continuous
 10
92.300721729446934
 20
121.63982669187099
 11
92.300721729447119
 21
123.11206987830447
  0
LINE
  8
____
 62
     4
  6
continuous
 10
91.600721729446946
 20
121.32594828508782
 11
91.600721729447116
 21
123.42594828508783
  0
LINE
  8
____
 62
     4
  6
continuous
 10
92.15905506278024
 20
121.39445282746539
 11
91.600721729446946
 21
121.39445282746547
  0
LINE
  8
____
 62
     4
  6
continuous
 10
92.15905506278034
 20
121.88520055627652
 11
91.600721729446988
 21
121.8852005562766
  0
LINE
  8
____
 62
     4
  6
continuous
 10
92.159055062780425
 20
122.86669601389895
 11
91.600721729447073
 21
122.86669601389895
  0
LINE
  8
____
 62
     4
  6
continuous
 10
92.159055062780467
 20
123.35744374271007
 11
91.600721729447116
 21
123.35744374271017
  0
LINE
  8
____
 62
     4
  6
continuous
 10
91.400721729446943
 20
121.32594828508782
 11
91.400721729447127
 21
123.42594828508783
  0
LINE
  8
____
 62
     4
  6
continuous
 10
91.600721729446946
 20
121.32594828508782
 11
91.400721729446943
 21
121.32594828508782
  0
LINE
  8
____
 62
     4
  6
continuous
 10
91.600721729447116
 20
123.42594828508783
 11
91.400721729447127
 21
123.42594828508783
  0
LINE
  8
____
 62
     4
  6
line_font22
 10
81.166461850239529
 20
122.37594828508709
 11
92.471840497488586
 21
122.37594828508782
  0
LINE
  8
____
 62
     4
  6
continuous
 10
81.700721729419925
 20
121.87594828508091
 11
81.700721729443217
 21
122.87594828508527
  0
LINE
  8
____
 62
     4
  6
continuous
 10
82.450721729453306
 20
121.97594828508109
 11
81.600721729439755
 21
121.97594828506772
  0
LINE
  8
____
 62
     4
  6
continuous
 10
81.600721729444217
 20
122.77594828506872
 11
82.450721729453306
 21
122.77594828508472
  0
LINE
  8
____
 62
     4
  6
continuous
 10
81.700721729533939
 20
121.87594828508099
 11
82.450721729453349
 21
121.87594828508682
  0
LINE
  8
____
 62
     4
  6
continuous
 10
81.600721729439712
 20
121.97594828520705
 11
81.700721729533939
 21
121.87594828508099
  0
LINE
  8
____
 62
     4
  6
continuous
 10
81.600721729439712
 20
121.97594828520705
 11
81.600721729434255
 21
122.77594828512102
  0
LINE
  8
____
 62
     4
  6
continuous
 10
81.600721729434255
 20
122.77594828512102
 11
81.70072172954157
 21
122.87594828508219
  0
LINE
  8
____
 62
     4
  6
continuous
 10
81.70072172954157
 20
122.87594828508219
 11
82.450721729453349
 21
122.87594828508691
  0
LINE
  8
____
 62
     4
  6
continuous
 10
93.225721729456083
 20
125.53594828508795
 11
91.975721729456083
 21
125.53594828508804
  0
LINE
  8
____
 62
     4
  6
continuous
 10
93.225721729456041
 20
125.37594828508792
 11
91.975721729456041
 21
125.3759482850881
  0
LINE
  8
____
 62
     4
  6
continuous
 10
93.225721729456083
 20
125.53594828508795
 11
93.225721729456041
 21
125.37594828508792
  0
LINE
  8
____
 62
     4
  6
continuous
 10
91.975721729456083
 20
125.53594828508804
 11
91.975721729456041
 21
125.3759482850881
  0
LINE
  8
____
 62
     4
  6
continuous
 10
92.075721729456077
 20
125.53594828508804
 11
92.07572172945612
 21
125.65814747251052
  0
LINE
  8
____
 62
     4
  6
continuous
 10
93.125721729456075
 20
125.53594828508795
 11
93.125721729456131
 21
125.65814747251034
  0
LINE
  8
____
 62
     4
  6
continuous
 10
93.210721729454576
 20
119.06594828508969
 11
91.990721729454549
 21
119.0659482850896
  0
LINE
  8
____
 62
     4
  6
continuous
 10
93.210721729454576
 20
119.06594828508969
 11
93.210721729454519
 21
119.21594828508969
  0
LINE
  8
____
 62
     4
  6
continuous
 10
91.990721729454549
 20
119.0659482850896
 11
91.990721729454549
 21
119.21594828508961
  0
LINE
  8
____
 62
     4
  6
continuous
 10
93.225721729454577
 20
119.21594828508969
 11
91.975721729454577
 21
119.21594828508961
  0
LINE
  8
____
 62
     4
  6
continuous
 10
92.67572172945458
 20
119.0659482850896
 11
92.618029421762245
 21
119.21594828508961
  0
LINE
  8
____
 62
     4
  6
continuous
 10
92.575721729454585
 20
119.0659482850896
 11
92.51802942176225
 21
119.21594828508961
  0
LINE
  8
____
 62
     4
  6
continuous
 10
93.225721729454534
 20
119.37594828508973
 11
91.975721729454534
 21
119.37594828508955
  0
LINE
  8
____
 62
     4
  6
continuous
 10
93.225721729454577
 20
119.21594828508969
 11
93.225721729454534
 21
119.37594828508973
  0
LINE
  8
____
 62
     4
  6
continuous
 10
91.975721729454577
 20
119.21594828508961
 11
91.975721729454534
 21
119.37594828508955
  0
LINE
  8
____
 62
     4
  6
continuous
 10
92.350721729454577
 20
118.5659482850896
 11
92.850721729454577
 21
118.56594828508969
  0
LINE
  8
____
 62
     4
  6
continuous
 10
92.600721729454577
 20
118.71028585238702
 11
92.600721729454577
 21
119.0659482850896
  0
LINE
  8
____
 62
     4
  6
continuous
 10
93.100721729454577
 20
118.7102858523871
 11
93.100721729454577
 21
119.06594828508969
  0
LINE
  8
____
 62
     4
  6
continuous
 10
92.100721729454577
 20
118.71028585238702
 11
92.100721729454577
 21
119.0659482850896
  0
LINE
  8
____
 62
     4
  6
line_font22
 10
92.600721729461853
 20
117.96209630108879
 11
92.600721729454122
 21
126.25255947645746
  0
LINE
  8
____
 62
     4
  6
continuous
 10
92.900721729461125
 20
118.13594828510587
 11
92.30072172946268
 21
118.1359482850975
  0
LINE
  8
____
 62
     4
  6
continuous
 10
92.400721729473048
 20
118.03594828509895
 11
92.300721729464044
 21
118.13594828508086
  0
LINE
  8
____
 62
     4
  6
continuous
 10
92.80072172948978
 20
118.03594828509432
 11
92.400721729473048
 21
118.03594828509895
  0
LINE
  8
____
 62
     4
  6
continuous
 10
92.80072172948978
 20
118.03594828509432
 11
92.900721729462859
 21
118.13594828508622
  0
LINE
  8
____
 62
     4
  6
continuous
 10
92.400721729464223
 20
118.03594828508449
 11
92.400721729463399
 21
118.56594828507077
  0
LINE
  8
____
 62
     4
  6
continuous
 10
92.800721729462907
 20
118.03594828509267
 11
92.800721729462495
 21
118.56594828507077
  0
LINE
  8
____
 62
     4
  6
continuous
 10
92.300721729464044
 20
118.13594828508086
 11
92.300721729463675
 21
118.56594828507069
  0
LINE
  8
____
 62
     4
  6
continuous
 10
92.900721729462859
 20
118.13594828508622
 11
92.900721729462717
 21
118.56594828507077
  0
LINE
  8
____
 62
     4
  6
continuous
 10
92.900721729461395
 20
119.92594828508874
 11
92.900721729454759
 21
124.82594828509036
  0
LINE
  8
____
 62
     4
  6
continuous
 10
92.300721729462126
 20
119.92594828509037
 11
92.300721729455717
 21
124.82594828509028
  0
LINE
  8
____
 62
     4
  6
continuous
 10
92.400721729473048
 20
121.03594828509895
 11
92.300721729464044
 21
121.13594828508086
  0
LINE
  8
____
 62
     4
  6
continuous
 10
92.80072172948978
 20
121.03594828509432
 11
92.400721729473048
 21
121.03594828509895
  0
LINE
  8
____
 62
     4
  6
continuous
 10
92.80072172948978
 20
121.03594828509432
 11
92.900721729462859
 21
121.13594828508622
  0
LINE
  8
____
 62
     4
  6
continuous
 10
92.800721729461316
 20
119.92594828508901
 11
92.800721729460037
 21
121.03594828508758
  0
LINE
  8
____
 62
     4
  6
continuous
 10
92.400721729461949
 20
119.9259482850901
 11
92.400721729461083
 21
121.03594828509222
  0
LINE
  8
____
 62
     7
  6
line_font22
 10
87.350721729452573
 20
131.84775540645416
 11
87.350721729452573
 21
23.819401998919194
  0
LINE
  8
____
 62
     2
  6
continuous
 10
94.100721729454449
 20
125.37594828508782
 11
94.100721729454577
 21
134.37594828509017
  0
LINE
  8
____
 62
     2
  6
continuous
 10
93.900721729455213
 20
134.37594828508955
 11
96.300721729453855
 21
134.37594828508438
  0
LINE
  8
____
 62
     2
  6
continuous
 10
93.900721729455213
 20
134.37594828508955
 11
93.90072172945149
 21
135.17594828509229
  0
LINE
  8
____
 62
     2
  6
continuous
 10
94.100721729451578
 20
135.37594828509219
 11
96.1007217294474
 21
135.37594828508335
  0
LINE
  8
____
 62
     2
  6
continuous
 10
96.300721729453855
 20
134.37594828508438
 11
96.300721729446806
 21
135.17594828508547
  0
LINE
  8
____
 62
     4
  6
continuous
 10
93.850721729455032
 20
120.60094828508828
 11
93.850721729455074
 21
121.15094828508828
  0
LINE
  8
____
 62
     4
  6
line_font22
 10
93.980230124000514
 20
120.87594828508827
 11
93.571640259519086
 21
120.87594828508827
  0
LINE
  8
____
 62
     4
  6
continuous
 10
93.850721729455032
 20
120.60094828508828
 11
93.78234687957513
 21
120.60094828508828
  0
LINE
  8
____
 62
     4
  6
continuous
 10
93.850721729455074
 20
121.15094828508828
 11
93.782346879575215
 21
121.15094828508828
  0
LINE
  8
____
 62
     4
  6
continuous
 10
93.850721729455358
 20
123.60094828507881
 11
93.850721729455401
 21
124.15094828507881
  0
LINE
  8
____
 62
     4
  6
line_font22
 10
93.980230124000826
 20
123.87594828507882
 11
93.571640259519398
 21
123.87594828507882
  0
LINE
  8
____
 62
     4
  6
continuous
 10
93.850721729455358
 20
123.60094828507881
 11
93.782346879575485
 21
123.60094828507881
  0
LINE
  8
____
 62
     4
  6
continuous
 10
93.850721729455401
 20
124.15094828507881
 11
93.782346879575528
 21
124.15094828507881
  0
LINE
  8
____
 62
     7
  6
continuous
 10
93.038341077281871
 20
95.736862349773276
 11
97.383994621720035
 21
95.736862349773276
  0
LINE
  8
____
 62
     7
  6
continuous
 10
92.26685142138615
 20
95.736862349772949
 11
90.082980920692322
 21
95.736862349773361
  0
LINE
  8
____
 62
     7
  6
continuous
 10
90.082980920692322
 20
95.736862349773361
 11
90.082980920692279
 21
95.050738829381089
  0
LINE
  8
____
 62
     7
  6
continuous
 10
84.618462538212839
 20
96.422985870164851
 11
90.082980920692279
 21
95.050738829381089
  0
LINE
  8
____
 62
     7
  6
continuous
 10
84.618462538212839
 20
96.422985870164851
 11
84.618462538212839
 21
95.736862349773133
  0
LINE
  8
____
 62
     7
  6
continuous
 10
82.026242698759248
 20
95.736862349773276
 11
84.618462538212839
 21
95.736862349773133
  0
LINE
  8
____
 62
     2
  6
continuous
 10
94.100721729453582
 20
95.736862349773503
 11
94.100721729453539
 21
119.37594828508986
  0
LINE
  8
____
 62
     2
  6
continuous
 10
96.100721729455444
 20
95.736862349773503
 11
96.100721729453852
 21
134.37594828508608
  0
LINE
  8
____
 62
     6
  6
continuous
 10
83.60072172945263
 20
95.736862349772366
 11
83.60072172945263
 21
126.37594828508668
  0
LINE
  8
____
 62
     6
  6
continuous
 10
91.10072172945263
 20
95.736862349772039
 11
91.10072172945263
 21
126.37594828508668
  0
LINE
  8
____
 62
     4
  6
continuous
 10
56.350721729452665
 20
135.37594828509219
 11
93.100721729451578
 21
135.37594828509219
  0
LINE
  8
____
 62
     4
  6
continuous
 10
56.350721729452665
 20
29.070740974690821
 11
82.60072172945263
 21
29.070740974690821
  0
LINE
  8
____
 62
     4
  6
continuous
 10
61.350721729452623
 20
54.070740974691219
 11
85.219868626893572
 21
54.070740974691219
  0
LINE
  8
____
 62
     4
  6
continuous
 10
66.350721729452673
 20
119.37594828508837
 11
90.10072172945253
 21
119.37594828508837
  0
LINE
  8
____
 62
     4
  6
continuous
 10
66.350721729452673
 20
70.070740974687169
 11
90.10072172945253
 21
70.070740974687169
  0
LINE
  8
____
 62
     4
  6
continuous
 10
66.350721729452673
 20
64.070740974686771
 11
90.100721729452673
 21
64.070740974686771
  0
LINE
  8
____
 62
     4
  6
continuous
 10
71.350721729450626
 20
122.37594828508709
 11
80.166461850239529
 21
122.37594828508709
  0
LINE
  8
____
 62
     4
  6
continuous
 10
71.350721729450626
 20
127.37594828508546
 11
82.600721729445482
 21
127.37594828508546
  0
LINE
  8
____
 62
     4
  6
continuous
 10
66.350721729452673
 20
125.37594828508844
 11
69.12326030147743
 21
125.37594828508848
  0
LINE
  8
____
 62
     4
  6
continuous
 10
74.039823816827592
 20
125.37594828508848
 11
90.10072172945253
 21
125.37594828508844
  0
LINE
  8
____
 62
     4
  6
continuous
 10
56.350721729452665
 20
49.070740974691311
 11
68.528733323837216
 21
49.070740974691311
  0
LINE
  8
____
 62
     2
  6
continuous
 10
94.100721729453539
 20
70.070740974686814
 11
94.100721729453539
 21
92.739809152510929
  0
LINE
  8
____
 62
     2
  6
continuous
 10
94.220721729455249
 20
92.739809152510972
 11
94.220721729452379
 21
54.070740974691084
  0
LINE
  8
____
 62
     7
  6
chain_double_dash
 10
70.218675958428875
 20
47.070740974691489
 11
70.218675958428875
 21
34.208873365696583
  0
LINE
  8
____
 62
     7
  6
chain_double_dash
 10
70.218675958428875
 20
47.070740974691489
 11
72.218675958428875
 21
49.070740974691432
  0
LINE
  8
____
 62
     7
  6
chain_double_dash
 10
72.218675958428875
 20
49.070740974691432
 11
75.252905022169685
 21
49.070740974691333
  0
LINE
  8
____
 62
     7
  6
chain_double_dash
 10
76.252905022181736
 20
49.070740974691219
 11
107.65227432714539
 21
49.070740974690629
  0
LINE
  8
____
 62
     7
  6
line_font22
 10
139.71401512523965
 20
23.819401998919229
 11
139.7140151252396
 21
131.84775540645416
  0
LINE
  8
____
 62
     6
  6
continuous
 10
137.21401512523968
 20
29.070740974691081
 11
142.21401512523968
 21
29.070740974691024
  0
LINE
  8
____
 62
     6
  6
continuous
 10
137.01401512523964
 20
126.37594828508674
 11
142.41401512523964
 21
126.37594828508679
  0
LINE
  8
____
 62
     6
  6
continuous
 10
137.01401512523964
 20
126.37594828508674
 11
137.01401512524396
 21
127.17594828508777
  0
LINE
  8
____
 62
     6
  6
continuous
 10
137.21401512524398
 20
127.37594828508773
 11
142.21401512524173
 21
127.37594828508557
  0
LINE
  8
____
 62
     6
  6
continuous
 10
142.41401512523964
 20
126.37594828508679
 11
142.41401512524178
 21
127.17594828508561
  0
LINE
  8
____
 62
     4
  6
continuous
 10
142.4140151252426
 20
127.15094828517347
 11
142.4140151252426
 21
126.60094828517347
  0
LINE
  8
____
 62
     4
  6
line_font22
 10
142.28450673069713
 20
126.87594828517348
 11
142.69309659517862
 21
126.87594828517348
  0
LINE
  8
____
 62
     4
  6
continuous
 10
142.4140151252426
 20
127.15094828517347
 11
142.48238997512246
 21
127.15094828517347
  0
LINE
  8
____
 62
     4
  6
continuous
 10
142.4140151252426
 20
126.60094828517347
 11
142.48238997512246
 21
126.60094828517347
  0
LINE
  8
____
 62
     4
  6
continuous
 10
137.01401512523668
 20
127.15094828517347
 11
137.01401512523668
 21
126.60094828517347
  0
LINE
  8
____
 62
     4
  6
line_font22
 10
137.14352351978218
 20
126.87594828517348
 11
136.73493365530069
 21
126.87594828517348
  0
LINE
  8
____
 62
     4
  6
continuous
 10
137.01401512523668
 20
127.15094828517347
 11
136.94564027535682
 21
127.15094828517347
  0
LINE
  8
____
 62
     4
  6
continuous
 10
137.01401512523668
 20
126.60094828517347
 11
136.94564027535682
 21
126.60094828517347
  0
LINE
  8
____
 62
     2
  6
continuous
 10
134.46401512524469
 20
54.070740974690992
 11
134.46401512524264
 21
92.739809152512066
  0
LINE
  8
____
 62
     2
  6
continuous
 10
132.26401512523759
 20
134.37594828508955
 11
134.66401512523623
 21
134.37594828508438
  0
LINE
  8
____
 62
     2
  6
continuous
 10
132.26401512523759
 20
134.37594828508955
 11
132.26401512523387
 21
135.17594828509229
  0
LINE
  8
____
 62
     2
  6
continuous
 10
132.46401512523397
 20
135.37594828509219
 11
134.46401512522979
 21
135.37594828508335
  0
LINE
  8
____
 62
     2
  6
continuous
 10
134.66401512523623
 20
134.37594828508438
 11
134.66401512522918
 21
135.17594828508547
  0
LINE
  8
____
 62
     2
  6
continuous
 10
134.46401512523784
 20
95.736862349773503
 11
134.46401512523624
 21
134.37594828508608
  0
LINE
  8
____
 62
     2
  6
continuous
 10
132.46401512523593
 20
54.070740974689834
 11
134.46401512524469
 21
54.070740974690992
  0
LINE
  8
____
 62
     2
  6
continuous
 10
132.46401512523593
 20
54.070740974689834
 11
132.46401512523593
 21
92.739809152510929
  0
LINE
  8
____
 62
     2
  6
continuous
 10
132.46401512523596
 20
95.736862349773503
 11
132.46401512523593
 21
134.37594828509017
  0
LINE
  8
____
 62
     7
  6
line_font22
 10
133.4640151252396
 20
52.664439161962335
 11
133.46401512523946
 21
136.35057061967552
  0
LINE
  8
____
 62
     2
  6
continuous
 10
130.11401512524037
 20
119.37594828508838
 11
130.11401512524023
 21
125.37594828508848
  0
LINE
  8
____
 62
     2
  6
continuous
 10
129.7140151252396
 20
119.37594828508838
 11
129.71401512523946
 21
125.37594828508848
  0
LINE
  8
____
 62
     2
  6
continuous
 10
130.11401512524037
 20
64.07074097468707
 11
130.11401512524023
 21
70.070740974687155
  0
LINE
  8
____
 62
     2
  6
continuous
 10
129.7140151252396
 20
64.07074097468707
 11
129.71401512523946
 21
70.070740974687155
  0
LINE
  8
____
 62
     2
  6
continuous
 10
144.9640151252346
 20
54.070740974690992
 11
144.96401512523664
 21
92.739809152512066
  0
LINE
  8
____
 62
     2
  6
continuous
 10
147.16401512524169
 20
134.37594828508955
 11
144.76401512524305
 21
134.37594828508438
  0
LINE
  8
____
 62
     2
  6
continuous
 10
147.16401512524169
 20
134.37594828508955
 11
147.16401512524541
 21
135.17594828509229
  0
LINE
  8
____
 62
     2
  6
continuous
 10
146.96401512524534
 20
135.37594828509219
 11
144.96401512524952
 21
135.37594828508335
  0
LINE
  8
____
 62
     2
  6
continuous
 10
144.76401512524305
 20
134.37594828508438
 11
144.7640151252501
 21
135.17594828508547
  0
LINE
  8
____
 62
     2
  6
continuous
 10
144.96401512524147
 20
95.736862349773503
 11
144.96401512524307
 21
134.37594828508608
  0
LINE
  8
____
 62
     2
  6
continuous
 10
146.96401512524338
 20
54.070740974689834
 11
144.9640151252346
 21
54.070740974690992
  0
LINE
  8
____
 62
     2
  6
continuous
 10
146.96401512524338
 20
54.070740974689834
 11
146.96401512524338
 21
92.739809152510929
  0
LINE
  8
____
 62
     2
  6
continuous
 10
146.96401512524332
 20
95.736862349773503
 11
146.96401512524338
 21
134.37594828509017
  0
LINE
  8
____
 62
     7
  6
line_font22
 10
145.96401512523968
 20
52.664439161962335
 11
145.96401512523983
 21
136.35057061967552
  0
LINE
  8
____
 62
     4
  6
line_font16
 10
142.71401512523957
 20
119.62594828508837
 11
142.71401512523965
 21
125.12594828508861
  0
LINE
  8
____
 62
     4
  6
line_font16
 10
136.7140151252396
 20
119.62594828508838
 11
136.71401512523965
 21
125.12594828508861
  0
LINE
  8
____
 62
     6
  6
continuous
 10
137.2140151252396
 20
125.3759482850886
 11
137.21401512523965
 21
126.37594828508689
  0
LINE
  8
____
 62
     6
  6
continuous
 10
142.21401512523957
 20
125.37594828508861
 11
142.21401512523946
 21
126.37594828508693
  0
LINE
  8
____
 62
     4
  6
line_font22
 10
138.4640151252396
 20
122.37594828508898
 11
140.9640151252396
 21
122.37594828508898
  0
LINE
  8
____
 62
     4
  6
line_font21
 10
139.7140151252396
 20
121.39445282746661
 11
140.56401512523959
 21
121.88520055627781
  0
LINE
  8
____
 62
     4
  6
line_font21
 10
140.56401512523959
 20
121.88520055627781
 11
140.56401512523959
 21
122.86669601390015
  0
LINE
  8
____
 62
     4
  6
line_font21
 10
140.56401512523959
 20
122.86669601390015
 11
139.7140151252396
 21
123.35744374271135
  0
LINE
  8
____
 62
     4
  6
line_font21
 10
139.7140151252396
 20
123.35744374271135
 11
138.8640151252396
 21
122.86669601390015
  0
LINE
  8
____
 62
     4
  6
line_font21
 10
138.8640151252396
 20
122.86669601390015
 11
138.8640151252396
 21
121.88520055627781
  0
LINE
  8
____
 62
     4
  6
line_font21
 10
138.8640151252396
 20
121.88520055627781
 11
139.7140151252396
 21
121.39445282746661
  0
LINE
  8
____
 62
     4
  6
continuous
 10
140.33901512524079
 20
125.53594828508795
 11
139.08901512524079
 21
125.53594828508804
  0
LINE
  8
____
 62
     4
  6
continuous
 10
140.33901512524073
 20
125.37594828508792
 11
139.08901512524073
 21
125.3759482850881
  0
LINE
  8
____
 62
     4
  6
continuous
 10
140.33901512524079
 20
125.53594828508795
 11
140.33901512524073
 21
125.37594828508792
  0
LINE
  8
____
 62
     4
  6
continuous
 10
139.08901512524079
 20
125.53594828508804
 11
139.08901512524073
 21
125.3759482850881
  0
LINE
  8
____
 62
     4
  6
continuous
 10
139.18901512524079
 20
125.53594828508804
 11
139.18901512524084
 21
125.65814747251052
  0
LINE
  8
____
 62
     4
  6
continuous
 10
140.2390151252408
 20
125.53594828508795
 11
140.23901512524083
 21
125.65814747251034
  0
LINE
  8
____
 62
     4
  6
continuous
 10
140.32401512523367
 20
119.06594828508969
 11
139.10401512523364
 21
119.0659482850896
  0
LINE
  8
____
 62
     4
  6
continuous
 10
140.32401512523367
 20
119.06594828508969
 11
140.32401512523364
 21
119.21594828508969
  0
LINE
  8
____
 62
     4
  6
continuous
 10
139.10401512523364
 20
119.0659482850896
 11
139.10401512523364
 21
119.21594828508961
  0
LINE
  8
____
 62
     4
  6
continuous
 10
140.33901512523369
 20
119.21594828508969
 11
139.08901512523369
 21
119.21594828508961
  0
LINE
  8
____
 62
     4
  6
continuous
 10
139.7890151252337
 20
119.0659482850896
 11
139.73132281754135
 21
119.21594828508961
  0
LINE
  8
____
 62
     4
  6
continuous
 10
139.68901512523368
 20
119.0659482850896
 11
139.63132281754136
 21
119.21594828508961
  0
LINE
  8
____
 62
     4
  6
continuous
 10
140.33901512523366
 20
119.37594828508973
 11
139.08901512523366
 21
119.37594828508955
  0
LINE
  8
____
 62
     4
  6
continuous
 10
140.33901512523369
 20
119.21594828508969
 11
140.33901512523366
 21
119.37594828508973
  0
LINE
  8
____
 62
     4
  6
continuous
 10
139.08901512523369
 20
119.21594828508961
 11
139.08901512523366
 21
119.37594828508955
  0
LINE
  8
____
 62
     4
  6
continuous
 10
139.46401512523369
 20
118.5659482850896
 11
139.96401512523369
 21
118.56594828508969
  0
LINE
  8
____
 62
     4
  6
continuous
 10
139.71401512523369
 20
118.71028585238702
 11
139.71401512523369
 21
119.0659482850896
  0
LINE
  8
____
 62
     4
  6
continuous
 10
140.21401512523369
 20
118.7102858523871
 11
140.21401512523369
 21
119.06594828508969
  0
LINE
  8
____
 62
     4
  6
continuous
 10
139.21401512523369
 20
118.71028585238702
 11
139.21401512523369
 21
119.0659482850896
  0
LINE
  8
____
 62
     4
  6
continuous
 10
140.01401512524023
 20
118.13594828510587
 11
139.41401512524178
 21
118.1359482850975
  0
LINE
  8
____
 62
     4
  6
continuous
 10
139.51401512525214
 20
118.03594828509895
 11
139.41401512524314
 21
118.13594828508086
  0
LINE
  8
____
 62
     4
  6
continuous
 10
139.91401512526889
 20
118.03594828509432
 11
139.51401512525214
 21
118.03594828509895
  0
LINE
  8
____
 62
     4
  6
continuous
 10
139.91401512526889
 20
118.03594828509432
 11
140.01401512524197
 21
118.13594828508622
  0
LINE
  8
____
 62
     4
  6
continuous
 10
139.51401512524333
 20
118.03594828508449
 11
139.51401512524251
 21
118.56594828507077
  0
LINE
  8
____
 62
     4
  6
continuous
 10
139.914015125242
 20
118.03594828509267
 11
139.9140151252416
 21
118.56594828507077
  0
LINE
  8
____
 62
     4
  6
continuous
 10
139.41401512524314
 20
118.13594828508086
 11
139.4140151252428
 21
118.56594828507069
  0
LINE
  8
____
 62
     4
  6
continuous
 10
140.01401512524197
 20
118.13594828508622
 11
140.01401512524183
 21
118.56594828507077
  0
LINE
  8
____
 62
     4
  6
line_font16
 10
142.71401512523957
 20
64.32074097468707
 11
142.71401512523965
 21
69.820740974687325
  0
LINE
  8
____
 62
     4
  6
line_font16
 10
136.7140151252396
 20
64.320740974687098
 11
136.71401512523965
 21
69.820740974687325
  0
LINE
  8
____
 62
     4
  6
line_font22
 10
138.4640151252396
 20
67.070740974687681
 11
140.9640151252396
 21
67.070740974687681
  0
LINE
  8
____
 62
     4
  6
line_font21
 10
139.7140151252396
 20
66.089245517065308
 11
140.56401512523959
 21
66.579993245876508
  0
LINE
  8
____
 62
     4
  6
line_font21
 10
140.56401512523959
 20
66.579993245876508
 11
140.56401512523959
 21
67.561488703498853
  0
LINE
  8
____
 62
     4
  6
line_font21
 10
140.56401512523959
 20
67.561488703498853
 11
139.7140151252396
 21
68.052236432310053
  0
LINE
  8
____
 62
     4
  6
line_font21
 10
139.7140151252396
 20
68.052236432310053
 11
138.8640151252396
 21
67.561488703498853
  0
LINE
  8
____
 62
     4
  6
line_font21
 10
138.8640151252396
 20
67.561488703498853
 11
138.8640151252396
 21
66.579993245876508
  0
LINE
  8
____
 62
     4
  6
line_font21
 10
138.8640151252396
 20
66.579993245876508
 11
139.7140151252396
 21
66.089245517065308
  0
LINE
  8
____
 62
     4
  6
continuous
 10
140.33901512524079
 20
70.230740974686654
 11
139.08901512524079
 21
70.230740974686739
  0
LINE
  8
____
 62
     4
  6
continuous
 10
140.33901512524073
 20
70.070740974686615
 11
139.08901512524073
 21
70.0707409746868
  0
LINE
  8
____
 62
     4
  6
continuous
 10
140.33901512524079
 20
70.230740974686654
 11
140.33901512524073
 21
70.070740974686615
  0
LINE
  8
____
 62
     4
  6
continuous
 10
139.08901512524079
 20
70.230740974686739
 11
139.08901512524073
 21
70.0707409746868
  0
LINE
  8
____
 62
     4
  6
continuous
 10
139.18901512524079
 20
70.230740974686739
 11
139.18901512524084
 21
70.352940162109221
  0
LINE
  8
____
 62
     4
  6
continuous
 10
140.2390151252408
 20
70.230740974686654
 11
140.23901512524083
 21
70.35294016210905
  0
LINE
  8
____
 62
     4
  6
continuous
 10
140.32401512523367
 20
63.760740974688396
 11
139.10401512523364
 21
63.760740974688304
  0
LINE
  8
____
 62
     4
  6
continuous
 10
140.32401512523367
 20
63.760740974688396
 11
140.32401512523364
 21
63.910740974688395
  0
LINE
  8
____
 62
     4
  6
continuous
 10
139.10401512523364
 20
63.760740974688304
 11
139.10401512523364
 21
63.910740974688309
  0
LINE
  8
____
 62
     4
  6
continuous
 10
140.33901512523369
 20
63.910740974688395
 11
139.08901512523369
 21
63.910740974688309
  0
LINE
  8
____
 62
     4
  6
continuous
 10
139.7890151252337
 20
63.760740974688304
 11
139.73132281754135
 21
63.910740974688309
  0
LINE
  8
____
 62
     4
  6
continuous
 10
139.68901512523368
 20
63.760740974688304
 11
139.63132281754136
 21
63.910740974688309
  0
LINE
  8
____
 62
     4
  6
continuous
 10
140.33901512523366
 20
64.070740974688434
 11
139.08901512523366
 21
64.070740974688249
  0
LINE
  8
____
 62
     4
  6
continuous
 10
140.33901512523369
 20
63.910740974688395
 11
140.33901512523366
 21
64.070740974688434
  0
LINE
  8
____
 62
     4
  6
continuous
 10
139.08901512523369
 20
63.910740974688309
 11
139.08901512523366
 21
64.070740974688249
  0
LINE
  8
____
 62
     4
  6
continuous
 10
139.46401512523369
 20
63.260740974688304
 11
139.96401512523369
 21
63.260740974688396
  0
LINE
  8
____
 62
     4
  6
continuous
 10
139.71401512523369
 20
63.405078541985716
 11
139.71401512523369
 21
63.760740974688304
  0
LINE
  8
____
 62
     4
  6
continuous
 10
140.21401512523369
 20
63.405078541985802
 11
140.21401512523369
 21
63.760740974688396
  0
LINE
  8
____
 62
     4
  6
continuous
 10
139.21401512523369
 20
63.405078541985716
 11
139.21401512523369
 21
63.760740974688304
  0
LINE
  8
____
 62
     4
  6
continuous
 10
140.01401512524023
 20
62.830740974704568
 11
139.41401512524178
 21
62.830740974696198
  0
LINE
  8
____
 62
     4
  6
continuous
 10
139.51401512525214
 20
62.730740974697653
 11
139.41401512524314
 21
62.830740974679557
  0
LINE
  8
____
 62
     4
  6
continuous
 10
139.91401512526889
 20
62.73074097469302
 11
139.51401512525214
 21
62.730740974697653
  0
LINE
  8
____
 62
     4
  6
continuous
 10
139.91401512526889
 20
62.73074097469302
 11
140.01401512524197
 21
62.830740974684922
  0
LINE
  8
____
 62
     4
  6
continuous
 10
139.51401512524333
 20
62.730740974683194
 11
139.51401512524251
 21
63.260740974669481
  0
LINE
  8
____
 62
     4
  6
continuous
 10
139.914015125242
 20
62.730740974691379
 11
139.9140151252416
 21
63.260740974669481
  0
LINE
  8
____
 62
     4
  6
continuous
 10
139.41401512524314
 20
62.830740974679557
 11
139.4140151252428
 21
63.260740974669389
  0
LINE
  8
____
 62
     4
  6
continuous
 10
140.01401512524197
 20
62.830740974684922
 11
140.01401512524183
 21
63.260740974669481
  0
LINE
  8
____
 62
     6
  6
continuous
 10
142.21401512523968
 20
29.070740974691024
 11
142.21401512523957
 21
64.070740974687126
  0
LINE
  8
____
 62
     6
  6
continuous
 10
137.21401512523968
 20
29.070740974691081
 11
137.21401512523965
 21
64.070740974687155
  0
LINE
  8
____
 62
     7
  6
continuous
 10
131.97027899174847
 20
95.736862349772935
 11
135.08307874940689
 21
95.736862349773602
  0
LINE
  8
____
 62
     7
  6
continuous
 10
131.97027899174822
 20
92.739809152511398
 11
135.08307874940701
 21
92.739809152510944
  0
LINE
  8
____
 62
     7
  6
continuous
 10
147.53427778004118
 20
95.736862349772252
 11
144.42147802238262
 21
95.736862349773602
  0
LINE
  8
____
 62
     7
  6
continuous
 10
147.5342777800401
 20
92.739809152512592
 11
144.42147802238262
 21
92.739809152512635
  0
LINE
  8
____
 62
     7
  6
continuous
 10
137.89739085907098
 20
95.736862349771812
 11
137.89739085907098
 21
96.237079661528938
  0
LINE
  8
____
 62
     7
  6
continuous
 10
136.66079917452166
 20
95.736862349772636
 11
137.89739085907098
 21
95.736862349771812
  0
LINE
  8
____
 62
     7
  6
continuous
 10
137.89739085907098
 20
96.237079661528938
 11
141.5306393914081
 21
95.236645038017954
  0
LINE
  8
____
 62
     7
  6
continuous
 10
141.5306393914081
 20
95.236645038017954
 11
141.5306393914079
 21
95.736862349772863
  0
LINE
  8
____
 62
     7
  6
continuous
 10
142.97168087498005
 20
95.736862349773602
 11
141.5306393914079
 21
95.736862349772863
  0
LINE
  8
____
 62
     7
  6
continuous
 10
137.89739085907098
 20
92.739809152509167
 11
137.89739085907098
 21
93.240026464266293
  0
LINE
  8
____
 62
     7
  6
continuous
 10
136.66079917452166
 20
92.739809152509977
 11
137.89739085907098
 21
92.739809152509167
  0
LINE
  8
____
 62
     7
  6
continuous
 10
137.89739085907098
 20
93.240026464266293
 11
141.5306393914081
 21
92.239591840755295
  0
LINE
  8
____
 62
     7
  6
continuous
 10
141.5306393914081
 20
92.239591840755295
 11
141.5306393914079
 21
92.739809152510205
  0
LINE
  8
____
 62
     7
  6
continuous
 10
142.97168087498005
 20
92.739809152510944
 11
141.5306393914079
 21
92.739809152510205
  0
LINE
  8
____
 62
     6
  6
continuous
 10
142.21401512523957
 20
70.070740974687169
 11
142.21401512523946
 21
92.739809152511555
  0
LINE
  8
____
 62
     6
  6
continuous
 10
142.21401512523946
 20
95.736862349775677
 11
142.21401512523957
 21
119.37594828508841
  0
LINE
  8
____
 62
     6
  6
continuous
 10
137.21401512523965
 20
70.070740974687169
 11
137.21401512523965
 21
92.739809152508101
  0
LINE
  8
____
 62
     6
  6
continuous
 10
137.21401512523965
 20
95.736862349770377
 11
137.21401512523965
 21
119.37594828508841
  0
LINE
  8
____
 62
     7
  6
line_font22
 10
141.01724015219483
 20
54.070740974690615
 11
143.3176793969289
 21
54.070740974690878
  0
LINE
  8
____
 62
     6
  6
continuous
 10
137.51401512523984
 20
52.290805488097568
 11
137.51401512523964
 21
56.15525711160609
  0
LINE
  8
____
 62
     6
  6
continuous
 10
141.9140151252397
 20
51.949663104762067
 11
141.91401512523964
 21
55.814114728280494
  0
LINE
  8
____
 62
     2
  6
continuous
 10
141.91401512524007
 20
54.370740974695892
 11
142.2140151252396
 21
54.370740974695927
  0
LINE
  8
____
 62
     2
  6
continuous
 10
141.9140151252401
 20
53.770740974695883
 11
142.21401512523965
 21
53.770740974695912
  0
LINE
  8
____
 62
     2
  6
continuous
 10
157.4640151252346
 20
54.070740974690992
 11
157.46401512523661
 21
92.739809152512066
  0
LINE
  8
____
 62
     2
  6
continuous
 10
159.66401512524169
 20
134.37594828508955
 11
157.26401512524308
 21
134.37594828508438
  0
LINE
  8
____
 62
     2
  6
continuous
 10
159.66401512524169
 20
134.37594828508955
 11
159.66401512524544
 21
135.17594828509229
  0
LINE
  8
____
 62
     2
  6
continuous
 10
159.46401512524534
 20
135.37594828509219
 11
157.46401512524952
 21
135.37594828508335
  0
LINE
  8
____
 62
     2
  6
continuous
 10
157.26401512524308
 20
134.37594828508438
 11
157.26401512525007
 21
135.17594828508547
  0
LINE
  8
____
 62
     2
  6
continuous
 10
157.46401512524153
 20
95.736862349773503
 11
157.46401512524307
 21
134.37594828508608
  0
LINE
  8
____
 62
     2
  6
continuous
 10
159.46401512524335
 20
54.070740974689834
 11
157.4640151252346
 21
54.070740974690992
  0
LINE
  8
____
 62
     2
  6
continuous
 10
159.46401512524335
 20
54.070740974689834
 11
159.46401512524335
 21
92.739809152510929
  0
LINE
  8
____
 62
     2
  6
continuous
 10
159.46401512524335
 20
95.736862349773503
 11
159.46401512524335
 21
134.37594828509017
  0
LINE
  8
____
 62
     7
  6
line_font22
 10
158.46401512523971
 20
52.664439161962335
 11
158.46401512523988
 21
136.35057061967552
  0
LINE
  8
____
 62
     7
  6
continuous
 10
160.03427778004115
 20
95.736862349772252
 11
156.92147802238267
 21
95.736862349773602
  0
LINE
  8
____
 62
     7
  6
continuous
 10
160.03427778004004
 20
92.739809152512592
 11
156.92147802238267
 21
92.739809152512635
  0
LINE
  8
____
 62
     2
  6
continuous
 10
172.16401512524169
 20
134.37594828508955
 11
169.76401512524308
 21
134.37594828508438
  0
LINE
  8
____
 62
     2
  6
continuous
 10
172.16401512524169
 20
134.37594828508955
 11
172.16401512524544
 21
135.17594828509229
  0
LINE
  8
____
 62
     2
  6
continuous
 10
171.96401512524534
 20
135.37594828509219
 11
169.96401512524952
 21
135.37594828508335
  0
LINE
  8
____
 62
     2
  6
continuous
 10
169.76401512524308
 20
134.37594828508438
 11
169.76401512525007
 21
135.17594828508547
  0
LINE
  8
____
 62
     2
  6
continuous
 10
171.96401512524335
 20
54.070740974689834
 11
169.9640151252346
 21
54.070740974690992
  0
LINE
  8
____
 62
     7
  6
continuous
 10
176.34908747609296
 20
118.41523966083719
 11
176.34908747609296
 21
120.50339282277658
  0
LINE
  8
____
 62
     7
  6
continuous
 10
176.34908747609296
 20
120.50339282277658
 11
176.85632783144555
 21
120.50339282277656
  0
LINE
  8
____
 62
     7
  6
continuous
 10
175.84184712074091
 20
124.24850374740025
 11
176.85632783144555
 21
120.50339282277656
  0
LINE
  8
____
 62
     7
  6
continuous
 10
175.84184712074091
 20
124.24850374740025
 11
176.34908747609242
 21
124.24850374740038
  0
LINE
  8
____
 62
     7
  6
continuous
 10
176.34908747609296
 20
126.20500226090587
 11
176.34908747609242
 21
124.24850374740038
  0
LINE
  8
____
 62
     7
  6
continuous
 10
176.34908747609296
 20
63.110032350435716
 11
176.34908747609296
 21
65.198185512375105
  0
LINE
  8
____
 62
     7
  6
continuous
 10
176.34908747609296
 20
65.198185512375105
 11
176.85632783144555
 21
65.198185512375076
  0
LINE
  8
____
 62
     7
  6
continuous
 10
175.84184712074091
 20
68.943296436998764
 11
176.85632783144555
 21
65.198185512375076
  0
LINE
  8
____
 62
     7
  6
continuous
 10
175.84184712074091
 20
68.943296436998764
 11
176.34908747609242
 21
68.943296436998907
  0
LINE
  8
____
 62
     7
  6
continuous
 10
176.34908747609296
 20
70.899794950504401
 11
176.34908747609242
 21
68.943296436998907
  0
LINE
  8
____
 62
     3
  6
continuous
 10
171.96401512524335
 20
119.37594828508841
 11
176.34908747609478
 21
119.37594828508838
  0
LINE
  8
____
 62
     3
  6
continuous
 10
171.96401512524324
 20
125.37594828508844
 11
176.34908747609487
 21
125.3759482850886
  0
LINE
  8
____
 62
     3
  6
line_font21
 10
171.96401512524324
 20
125.12594828508853
 11
176.34908747609487
 21
125.12594828508853
  0
LINE
  8
____
 62
     3
  6
line_font21
 10
171.96401512524335
 20
119.62594828508837
 11
176.34908747609478
 21
119.62594828508834
  0
LINE
  8
____
 62
     3
  6
continuous
 10
171.96401512524335
 20
64.070740974687112
 11
176.3490874760904
 21
64.070740974687098
  0
LINE
  8
____
 62
     3
  6
continuous
 10
171.96401512524335
 20
70.070740974687155
 11
176.34908747609222
 21
70.070740974687126
  0
LINE
  8
____
 62
     3
  6
line_font21
 10
171.96401512524335
 20
69.820740974687041
 11
176.34908747609214
 21
69.820740974686998
  0
LINE
  8
____
 62
     3
  6
line_font21
 10
171.96401512524335
 20
64.32074097468707
 11
176.34908747609052
 21
64.320740974687098
  0
LINE
  8
____
 62
     3
  6
continuous
 10
159.46401512524324
 20
119.37594828508837
 11
169.96401512523789
 21
119.37594828508841
  0
LINE
  8
____
 62
     3
  6
continuous
 10
159.46401512524335
 20
125.3759482850885
 11
169.96401512523823
 21
125.37594828508848
  0
LINE
  8
____
 62
     3
  6
line_font21
 10
159.46401512524335
 20
125.12594828508848
 11
169.96401512523815
 21
125.12594828508855
  0
LINE
  8
____
 62
     3
  6
line_font21
 10
159.46401512524324
 20
119.62594828508841
 11
169.96401512523789
 21
119.62594828508837
  0
LINE
  8
____
 62
     3
  6
continuous
 10
159.46401512524335
 20
64.07074097468707
 11
169.96401512523505
 21
64.070740974687112
  0
LINE
  8
____
 62
     3
  6
continuous
 10
159.46401512524335
 20
70.070740974687212
 11
169.96401512523542
 21
70.070740974687155
  0
LINE
  8
____
 62
     3
  6
line_font21
 10
159.46401512524324
 20
69.820740974687112
 11
169.96401512523533
 21
69.820740974687055
  0
LINE
  8
____
 62
     3
  6
line_font21
 10
159.46401512524324
 20
64.320740974687013
 11
169.96401512523497
 21
64.32074097468707
  0
LINE
  8
____
 62
     3
  6
continuous
 10
146.96401512524352
 20
119.37594828508837
 11
157.46401512523798
 21
119.37594828508838
  0
LINE
  8
____
 62
     3
  6
continuous
 10
146.96401512524352
 20
125.37594828508855
 11
157.46401512523823
 21
125.3759482850885
  0
LINE
  8
____
 62
     3
  6
line_font21
 10
146.96401512524346
 20
125.1259482850883
 11
157.46401512523815
 21
125.12594828508844
  0
LINE
  8
____
 62
     3
  6
line_font21
 10
146.96401512524352
 20
119.62594828508864
 11
157.46401512523798
 21
119.62594828508841
  0
LINE
  8
____
 62
     3
  6
continuous
 10
146.96401512524352
 20
64.070740974687013
 11
157.46401512523505
 21
64.070740974687055
  0
LINE
  8
____
 62
     3
  6
continuous
 10
146.96401512524352
 20
70.070740974687212
 11
157.46401512523533
 21
70.070740974687212
  0
LINE
  8
____
 62
     3
  6
line_font21
 10
146.96401512524352
 20
69.820740974687183
 11
157.46401512523542
 21
69.820740974687112
  0
LINE
  8
____
 62
     3
  6
line_font21
 10
146.96401512524352
 20
64.320740974686984
 11
157.46401512523505
 21
64.320740974687013
  0
LINE
  8
____
 62
     3
  6
continuous
 10
129.7140151252396
 20
119.37594828508838
 11
132.46401512523596
 21
119.37594828508823
  0
LINE
  8
____
 62
     3
  6
continuous
 10
134.46401512524127
 20
119.37594828508821
 11
144.96401512523801
 21
119.37594828508833
  0
LINE
  8
____
 62
     3
  6
continuous
 10
129.71401512523946
 20
125.37594828508848
 11
132.46401512523593
 21
125.37594828508844
  0
LINE
  8
____
 62
     3
  6
continuous
 10
134.46401512524102
 20
125.37594828508848
 11
144.96401512523832
 21
125.37594828508855
  0
LINE
  8
____
 62
     3
  6
line_font21
 10
129.71401512523946
 20
125.12594828508861
 11
132.46401512523593
 21
125.12594828508814
  0
LINE
  8
____
 62
     3
  6
line_font21
 10
134.46401512524102
 20
125.1259482850881
 11
144.96401512523829
 21
125.12594828508833
  0
LINE
  8
____
 62
     3
  6
line_font21
 10
129.7140151252396
 20
119.62594828508841
 11
132.46401512523596
 21
119.62594828508864
  0
LINE
  8
____
 62
     3
  6
line_font21
 10
134.46401512524127
 20
119.62594828508867
 11
144.96401512523801
 21
119.62594828508864
  0
LINE
  8
____
 62
     3
  6
continuous
 10
129.7140151252396
 20
64.07074097468707
 11
132.46401512523593
 21
64.070740974687098
  0
LINE
  8
____
 62
     3
  6
continuous
 10
134.46401512524423
 20
64.070740974687098
 11
144.96401512523505
 21
64.070740974687013
  0
LINE
  8
____
 62
     3
  6
continuous
 10
129.71401512523946
 20
70.070740974687155
 11
132.46401512523593
 21
70.070740974687112
  0
LINE
  8
____
 62
     3
  6
continuous
 10
134.46401512524398
 20
70.070740974687112
 11
144.96401512523548
 21
70.070740974687212
  0
LINE
  8
____
 62
     3
  6
line_font21
 10
129.71401512523946
 20
69.820740974687212
 11
132.46401512523593
 21
69.820740974687126
  0
LINE
  8
____
 62
     3
  6
line_font21
 10
134.46401512524392
 20
69.820740974687098
 11
144.96401512523533
 21
69.820740974687183
  0
LINE
  8
____
 62
     3
  6
line_font21
 10
129.7140151252396
 20
64.320740974687155
 11
132.46401512523593
 21
64.320740974687169
  0
LINE
  8
____
 62
     3
  6
line_font21
 10
134.46401512524423
 20
64.320740974687155
 11
144.96401512523505
 21
64.320740974686998
  0
LINE
  8
____
 62
     3
  6
line_font16
 10
132.46401512523582
 20
125.37594828508924
 11
134.4640151252367
 21
125.37594828508924
  0
LINE
  8
____
 62
     3
  6
line_font16
 10
134.46401512524127
 20
119.37594828508821
 11
132.46401512523582
 21
119.37594828508821
  0
LINE
  8
____
 62
     3
  6
line_font16
 10
134.46401512524398
 20
70.070740974687112
 11
132.46401512523593
 21
70.070740974687112
  0
LINE
  8
____
 62
     3
  6
line_font16
 10
132.46401512523593
 20
64.070740974687098
 11
134.46401512524423
 21
64.070740974687098
  0
LINE
  8
____
 62
     3
  6
line_font16
 10
144.96401512523582
 20
125.37594828508924
 11
146.9640151252367
 21
125.37594828508924
  0
LINE
  8
____
 62
     3
  6
line_font16
 10
146.96401512524127
 20
119.37594828508821
 11
144.96401512523582
 21
119.37594828508821
  0
LINE
  8
____
 62
     3
  6
line_font16
 10
146.96401512524398
 20
70.070740974687112
 11
144.96401512523593
 21
70.070740974687112
  0
LINE
  8
____
 62
     3
  6
line_font16
 10
144.96401512523593
 20
64.070740974687098
 11
146.96401512524423
 21
64.070740974687098
  0
LINE
  8
____
 62
     3
  6
line_font16
 10
157.46401512523587
 20
125.37594828508924
 11
159.4640151252367
 21
125.37594828508924
  0
LINE
  8
____
 62
     3
  6
line_font16
 10
159.46401512524133
 20
119.37594828508821
 11
157.46401512523587
 21
119.37594828508821
  0
LINE
  8
____
 62
     3
  6
line_font16
 10
159.46401512524398
 20
70.070740974687112
 11
157.46401512523587
 21
70.070740974687112
  0
LINE
  8
____
 62
     3
  6
line_font16
 10
157.46401512523587
 20
64.070740974687098
 11
159.46401512524426
 21
64.070740974687098
  0
LINE
  8
____
 62
     3
  6
line_font16
 10
169.96401512523587
 20
125.37594828508924
 11
171.9640151252367
 21
125.37594828508924
  0
LINE
  8
____
 62
     3
  6
line_font16
 10
171.96401512524133
 20
119.37594828508821
 11
169.96401512523587
 21
119.37594828508821
  0
LINE
  8
____
 62
     3
  6
line_font16
 10
171.96401512524398
 20
70.070740974687112
 11
169.96401512523587
 21
70.070740974687112
  0
LINE
  8
____
 62
     3
  6
line_font16
 10
169.96401512523587
 20
64.070740974687098
 11
171.96401512524426
 21
64.070740974687098
  0
LINE
  8
____
 62
     7
  6
continuous
 10
178.84277029078038
 20
118.41523966083719
 11
178.84277029078038
 21
120.50339282277658
  0
LINE
  8
____
 62
     7
  6
continuous
 10
178.84277029078038
 20
120.50339282277658
 11
179.35001064613297
 21
120.50339282277656
  0
LINE
  8
____
 62
     7
  6
continuous
 10
178.33552993542833
 20
124.24850374740025
 11
179.35001064613297
 21
120.50339282277656
  0
LINE
  8
____
 62
     7
  6
continuous
 10
178.33552993542833
 20
124.24850374740025
 11
178.84277029077984
 21
124.24850374740038
  0
LINE
  8
____
 62
     7
  6
continuous
 10
178.84277029078038
 20
126.20500226090587
 11
178.84277029077984
 21
124.24850374740038
  0
LINE
  8
____
 62
     7
  6
continuous
 10
178.84277029078038
 20
63.110032350435716
 11
178.84277029078038
 21
65.198185512375105
  0
LINE
  8
____
 62
     7
  6
continuous
 10
178.84277029078038
 20
65.198185512375105
 11
179.35001064613297
 21
65.198185512375076
  0
LINE
  8
____
 62
     7
  6
continuous
 10
178.33552993542833
 20
68.943296436998764
 11
179.35001064613297
 21
65.198185512375076
  0
LINE
  8
____
 62
     7
  6
continuous
 10
178.33552993542833
 20
68.943296436998764
 11
178.84277029077984
 21
68.943296436998907
  0
LINE
  8
____
 62
     7
  6
continuous
 10
178.84277029078038
 20
70.899794950504401
 11
178.84277029077984
 21
68.943296436998907
  0
LINE
  8
____
 62
     7
  6
line_font22
 10
215.79588130393219
 20
23.819401998919229
 11
215.79588130393219
 21
131.84775540645416
  0
LINE
  8
____
 62
     6
  6
continuous
 10
213.29588130393228
 20
29.070740974691081
 11
218.29588130393228
 21
29.070740974691024
  0
LINE
  8
____
 62
     6
  6
continuous
 10
213.09588130393217
 20
126.37594828508674
 11
218.49588130393218
 21
126.37594828508679
  0
LINE
  8
____
 62
     6
  6
continuous
 10
213.09588130393217
 20
126.37594828508674
 11
213.09588130393655
 21
127.17594828508777
  0
LINE
  8
____
 62
     6
  6
continuous
 10
213.29588130393654
 20
127.37594828508773
 11
218.29588130393438
 21
127.37594828508557
  0
LINE
  8
____
 62
     6
  6
continuous
 10
218.49588130393218
 20
126.37594828508679
 11
218.49588130393437
 21
127.17594828508561
  0
LINE
  8
____
 62
     4
  6
continuous
 10
218.49588130393519
 20
127.15094828517347
 11
218.49588130393519
 21
126.60094828517347
  0
LINE
  8
____
 62
     4
  6
line_font22
 10
218.36637290938975
 20
126.87594828517348
 11
218.77496277387124
 21
126.87594828517348
  0
LINE
  8
____
 62
     4
  6
continuous
 10
218.49588130393519
 20
127.15094828517347
 11
218.56425615381499
 21
127.15094828517347
  0
LINE
  8
____
 62
     4
  6
continuous
 10
218.49588130393519
 20
126.60094828517347
 11
218.56425615381499
 21
126.60094828517347
  0
LINE
  8
____
 62
     4
  6
continuous
 10
213.09588130392927
 20
127.15094828517347
 11
213.09588130392927
 21
126.60094828517347
  0
LINE
  8
____
 62
     4
  6
line_font22
 10
213.2253896984748
 20
126.87594828517348
 11
212.81679983399331
 21
126.87594828517348
  0
LINE
  8
____
 62
     4
  6
continuous
 10
213.09588130392927
 20
127.15094828517347
 11
213.02750645404936
 21
127.15094828517347
  0
LINE
  8
____
 62
     4
  6
continuous
 10
213.09588130392927
 20
126.60094828517347
 11
213.02750645404936
 21
126.60094828517347
  0
LINE
  8
____
 62
     2
  6
continuous
 10
210.54588130393728
 20
54.070740974690992
 11
210.54588130393529
 21
92.739809152512066
  0
LINE
  8
____
 62
     2
  6
continuous
 10
208.34588130393018
 20
134.37594828508955
 11
210.74588130392883
 21
134.37594828508438
  0
LINE
  8
____
 62
     2
  6
continuous
 10
208.34588130393018
 20
134.37594828508955
 11
208.34588130392646
 21
135.17594828509229
  0
LINE
  8
____
 62
     2
  6
continuous
 10
208.54588130392654
 20
135.37594828509219
 11
210.54588130392236
 21
135.37594828508335
  0
LINE
  8
____
 62
     2
  6
continuous
 10
210.74588130392883
 20
134.37594828508438
 11
210.74588130392181
 21
135.17594828508547
  0
LINE
  8
____
 62
     2
  6
continuous
 10
210.54588130393037
 20
95.736862349773503
 11
210.54588130392881
 21
134.37594828508608
  0
LINE
  8
____
 62
     2
  6
continuous
 10
208.54588130392855
 20
54.070740974689834
 11
210.54588130393728
 21
54.070740974690992
  0
LINE
  8
____
 62
     2
  6
continuous
 10
208.54588130392855
 20
54.070740974689834
 11
208.54588130392855
 21
92.739809152510929
  0
LINE
  8
____
 62
     2
  6
continuous
 10
208.54588130392855
 20
95.736862349773503
 11
208.54588130392855
 21
134.37594828509017
  0
LINE
  8
____
 62
     7
  6
line_font22
 10
209.54588130393219
 20
52.664439161962335
 11
209.54588130393199
 21
136.35057061967552
  0
LINE
  8
____
 62
     2
  6
continuous
 10
221.04588130392719
 20
54.070740974690992
 11
221.04588130392926
 21
92.739809152512066
  0
LINE
  8
____
 62
     2
  6
continuous
 10
223.24588130393428
 20
134.37594828508955
 11
220.84588130393564
 21
134.37594828508438
  0
LINE
  8
____
 62
     2
  6
continuous
 10
223.24588130393428
 20
134.37594828508955
 11
223.24588130393801
 21
135.17594828509229
  0
LINE
  8
____
 62
     2
  6
continuous
 10
223.0458813039379
 20
135.37594828509219
 11
221.04588130394211
 21
135.37594828508335
  0
LINE
  8
____
 62
     2
  6
continuous
 10
220.84588130393564
 20
134.37594828508438
 11
220.84588130394275
 21
135.17594828508547
  0
LINE
  8
____
 62
     2
  6
continuous
 10
221.04588130393401
 20
95.736862349773503
 11
221.04588130393563
 21
134.37594828508608
  0
LINE
  8
____
 62
     2
  6
continuous
 10
223.045881303936
 20
54.070740974689834
 11
221.04588130392719
 21
54.070740974690992
  0
LINE
  8
____
 62
     2
  6
continuous
 10
223.045881303936
 20
54.070740974689834
 11
223.045881303936
 21
92.739809152510929
  0
LINE
  8
____
 62
     2
  6
continuous
 10
223.04588130393591
 20
95.736862349773503
 11
223.045881303936
 21
134.37594828509017
  0
LINE
  8
____
 62
     7
  6
line_font22
 10
222.04588130393228
 20
52.664439161962335
 11
222.04588130393236
 21
136.35057061967552
  0
LINE
  8
____
 62
     4
  6
line_font16
 10
218.79588130393219
 20
119.62594828508837
 11
218.79588130393219
 21
125.12594828508861
  0
LINE
  8
____
 62
     4
  6
line_font16
 10
212.79588130393219
 20
119.62594828508838
 11
212.79588130393219
 21
125.12594828508861
  0
LINE
  8
____
 62
     6
  6
continuous
 10
213.29588130393219
 20
125.3759482850886
 11
213.29588130393219
 21
126.37594828508689
  0
LINE
  8
____
 62
     6
  6
continuous
 10
218.29588130393219
 20
125.37594828508861
 11
218.29588130393199
 21
126.37594828508693
  0
LINE
  8
____
 62
     4
  6
line_font22
 10
214.54588130393219
 20
122.37594828508898
 11
217.04588130393219
 21
122.37594828508898
  0
LINE
  8
____
 62
     4
  6
line_font21
 10
215.79588130393219
 20
121.39445282746661
 11
216.64588130393219
 21
121.88520055627781
  0
LINE
  8
____
 62
     4
  6
line_font21
 10
216.64588130393219
 20
121.88520055627781
 11
216.64588130393219
 21
122.86669601390015
  0
LINE
  8
____
 62
     4
  6
line_font21
 10
216.64588130393219
 20
122.86669601390015
 11
215.79588130393219
 21
123.35744374271135
  0
LINE
  8
____
 62
     4
  6
line_font21
 10
215.79588130393219
 20
123.35744374271135
 11
214.9458813039322
 21
122.86669601390015
  0
LINE
  8
____
 62
     4
  6
line_font21
 10
214.9458813039322
 20
122.86669601390015
 11
214.9458813039322
 21
121.88520055627781
  0
LINE
  8
____
 62
     4
  6
line_font21
 10
214.9458813039322
 20
121.88520055627781
 11
215.79588130393219
 21
121.39445282746661
  0
LINE
  8
____
 62
     4
  6
line_font16
 10
218.79588130393219
 20
64.32074097468707
 11
218.79588130393219
 21
69.820740974687325
  0
LINE
  8
____
 62
     4
  6
line_font16
 10
212.79588130393219
 20
64.320740974687098
 11
212.79588130393219
 21
69.820740974687325
  0
LINE
  8
____
 62
     4
  6
line_font22
 10
214.54588130393219
 20
67.070740974687681
 11
217.04588130393219
 21
67.070740974687681
  0
LINE
  8
____
 62
     4
  6
line_font21
 10
215.79588130393219
 20
66.089245517065308
 11
216.64588130393219
 21
66.579993245876508
  0
LINE
  8
____
 62
     4
  6
line_font21
 10
216.64588130393219
 20
66.579993245876508
 11
216.64588130393219
 21
67.561488703498853
  0
LINE
  8
____
 62
     4
  6
line_font21
 10
216.64588130393219
 20
67.561488703498853
 11
215.79588130393219
 21
68.052236432310053
  0
LINE
  8
____
 62
     4
  6
line_font21
 10
215.79588130393219
 20
68.052236432310053
 11
214.9458813039322
 21
67.561488703498853
  0
LINE
  8
____
 62
     4
  6
line_font21
 10
214.9458813039322
 20
67.561488703498853
 11
214.9458813039322
 21
66.579993245876508
  0
LINE
  8
____
 62
     4
  6
line_font21
 10
214.9458813039322
 20
66.579993245876508
 11
215.79588130393219
 21
66.089245517065308
  0
LINE
  8
____
 62
     6
  6
continuous
 10
218.29588130393228
 20
29.070740974691024
 11
218.29588130393219
 21
64.070740974687126
  0
LINE
  8
____
 62
     6
  6
continuous
 10
213.29588130393228
 20
29.070740974691081
 11
213.29588130393219
 21
64.070740974687155
  0
LINE
  8
____
 62
     7
  6
continuous
 10
208.05214517044112
 20
95.736862349772935
 11
211.16494492809949
 21
95.736862349773602
  0
LINE
  8
____
 62
     7
  6
continuous
 10
208.05214517044075
 20
92.739809152511398
 11
211.16494492809957
 21
92.739809152510944
  0
LINE
  8
____
 62
     7
  6
continuous
 10
223.6161439587338
 20
95.736862349772252
 11
220.50334420107515
 21
95.736862349773602
  0
LINE
  8
____
 62
     7
  6
continuous
 10
223.61614395873272
 20
92.739809152512592
 11
220.50334420107515
 21
92.739809152512635
  0
LINE
  8
____
 62
     7
  6
continuous
 10
213.9792570377636
 20
95.736862349771812
 11
213.9792570377636
 21
96.237079661528938
  0
LINE
  8
____
 62
     7
  6
continuous
 10
212.74266535321419
 20
95.736862349772636
 11
213.9792570377636
 21
95.736862349771812
  0
LINE
  8
____
 62
     7
  6
continuous
 10
213.9792570377636
 20
96.237079661528938
 11
217.61250557010067
 21
95.236645038017954
  0
LINE
  8
____
 62
     7
  6
continuous
 10
217.61250557010067
 20
95.236645038017954
 11
217.6125055701005
 21
95.736862349772863
  0
LINE
  8
____
 62
     7
  6
continuous
 10
219.05354705367259
 20
95.736862349773602
 11
217.6125055701005
 21
95.736862349772863
  0
LINE
  8
____
 62
     7
  6
continuous
 10
213.9792570377636
 20
92.739809152509167
 11
213.9792570377636
 21
93.240026464266293
  0
LINE
  8
____
 62
     7
  6
continuous
 10
212.74266535321419
 20
92.739809152509977
 11
213.9792570377636
 21
92.739809152509167
  0
LINE
  8
____
 62
     7
  6
continuous
 10
213.9792570377636
 20
93.240026464266293
 11
217.61250557010067
 21
92.239591840755295
  0
LINE
  8
____
 62
     7
  6
continuous
 10
217.61250557010067
 20
92.239591840755295
 11
217.6125055701005
 21
92.739809152510205
  0
LINE
  8
____
 62
     7
  6
continuous
 10
219.05354705367259
 20
92.739809152510944
 11
217.6125055701005
 21
92.739809152510205
  0
LINE
  8
____
 62
     6
  6
continuous
 10
218.29588130393219
 20
70.070740974687169
 11
218.29588130393199
 21
92.739809152511555
  0
LINE
  8
____
 62
     6
  6
continuous
 10
218.29588130393199
 20
95.736862349775677
 11
218.29588130393219
 21
119.37594828508841
  0
LINE
  8
____
 62
     6
  6
continuous
 10
213.29588130393219
 20
70.070740974687169
 11
213.29588130393219
 21
92.739809152508101
  0
LINE
  8
____
 62
     6
  6
continuous
 10
213.29588130393219
 20
95.736862349770377
 11
213.29588130393219
 21
119.37594828508841
  0
LINE
  8
____
 62
     7
  6
line_font22
 10
217.09910633088745
 20
54.070740974690615
 11
219.39954557562146
 21
54.070740974690878
  0
LINE
  8
____
 62
     3
  6
line_font16
 10
208.54588130392835
 20
125.37594828508924
 11
210.54588130392926
 21
125.37594828508924
  0
LINE
  8
____
 62
     3
  6
line_font16
 10
210.54588130393381
 20
119.37594828508821
 11
208.54588130392835
 21
119.37594828508821
  0
LINE
  8
____
 62
     3
  6
line_font16
 10
210.54588130393654
 20
70.070740974687112
 11
208.54588130392855
 21
70.070740974687112
  0
LINE
  8
____
 62
     3
  6
line_font16
 10
208.54588130392855
 20
64.070740974687098
 11
210.54588130393682
 21
64.070740974687098
  0
LINE
  8
____
 62
     3
  6
line_font16
 10
221.04588130392835
 20
125.37594828508924
 11
223.04588130392926
 21
125.37594828508924
  0
LINE
  8
____
 62
     3
  6
line_font16
 10
223.04588130393381
 20
119.37594828508821
 11
221.04588130392835
 21
119.37594828508821
  0
LINE
  8
____
 62
     3
  6
line_font16
 10
223.04588130393654
 20
70.070740974687112
 11
221.04588130392855
 21
70.070740974687112
  0
LINE
  8
____
 62
     3
  6
line_font16
 10
221.04588130392855
 20
64.070740974687098
 11
223.04588130393682
 21
64.070740974687098
  0
LINE
  8
____
 62
     7
  6
continuous
 10
228.10091892248124
 20
118.41523966083719
 11
228.10091892248124
 21
120.50339282277658
  0
LINE
  8
____
 62
     7
  6
continuous
 10
228.10091892248124
 20
120.50339282277658
 11
228.60815927783383
 21
120.50339282277656
  0
LINE
  8
____
 62
     7
  6
continuous
 10
227.59367856712922
 20
124.24850374740025
 11
228.60815927783383
 21
120.50339282277656
  0
LINE
  8
____
 62
     7
  6
continuous
 10
227.59367856712922
 20
124.24850374740025
 11
228.1009189224807
 21
124.24850374740038
  0
LINE
  8
____
 62
     7
  6
continuous
 10
228.10091892248124
 20
126.20500226090587
 11
228.1009189224807
 21
124.24850374740038
  0
LINE
  8
____
 62
     7
  6
continuous
 10
228.10091892248124
 20
63.110032350435716
 11
228.10091892248124
 21
65.198185512375105
  0
LINE
  8
____
 62
     7
  6
continuous
 10
228.10091892248124
 20
65.198185512375105
 11
228.60815927783383
 21
65.198185512375076
  0
LINE
  8
____
 62
     7
  6
continuous
 10
227.59367856712922
 20
68.943296436998764
 11
228.60815927783383
 21
65.198185512375076
  0
LINE
  8
____
 62
     7
  6
continuous
 10
227.59367856712922
 20
68.943296436998764
 11
228.1009189224807
 21
68.943296436998907
  0
LINE
  8
____
 62
     7
  6
continuous
 10
228.10091892248124
 20
70.899794950504401
 11
228.1009189224807
 21
68.943296436998907
  0
LINE
  8
____
 62
     3
  6
continuous
 10
223.04588130393608
 20
119.37594828508837
 11
228.10091892247988
 21
119.37594828508787
  0
LINE
  8
____
 62
     3
  6
continuous
 10
223.04588130393608
 20
125.37594828508855
 11
228.10091892247979
 21
125.37594828508853
  0
LINE
  8
____
 62
     3
  6
line_font21
 10
223.045881303936
 20
125.1259482850883
 11
228.10091892247979
 21
125.12594828508841
  0
LINE
  8
____
 62
     3
  6
line_font21
 10
223.04588130393608
 20
119.62594828508864
 11
228.10091892247988
 21
119.62594828508887
  0
LINE
  8
____
 62
     3
  6
continuous
 10
223.04588130393608
 20
64.070740974687013
 11
228.10091892247988
 21
64.070740974687169
  0
LINE
  8
____
 62
     3
  6
continuous
 10
223.04588130393608
 20
70.070740974687212
 11
228.10091892247988
 21
70.070740974687695
  0
LINE
  8
____
 62
     3
  6
line_font21
 10
223.04588130393608
 20
69.820740974687183
 11
228.10091892247988
 21
69.820740974687354
  0
LINE
  8
____
 62
     3
  6
line_font21
 10
223.04588130393608
 20
64.320740974686984
 11
228.10091892247988
 21
64.320740974686728
  0
LINE
  8
____
 62
     7
  6
chain_double_dash
 10
178.84277029078029
 20
49.070740974690651
 11
227.85252176792471
 21
49.070740974690594
  0
LINE
  8
____
 62
     2
  6
continuous
 10
198.04588130393728
 20
54.070740974690992
 11
198.04588130393529
 21
92.739809152512066
  0
LINE
  8
____
 62
     2
  6
continuous
 10
195.84588130393018
 20
134.37594828508955
 11
198.24588130392883
 21
134.37594828508438
  0
LINE
  8
____
 62
     2
  6
continuous
 10
195.84588130393018
 20
134.37594828508955
 11
195.84588130392646
 21
135.17594828509229
  0
LINE
  8
____
 62
     2
  6
continuous
 10
196.04588130392654
 20
135.37594828509219
 11
198.04588130392236
 21
135.37594828508335
  0
LINE
  8
____
 62
     2
  6
continuous
 10
198.24588130392883
 20
134.37594828508438
 11
198.24588130392181
 21
135.17594828508547
  0
LINE
  8
____
 62
     2
  6
continuous
 10
198.04588130393037
 20
95.736862349773503
 11
198.04588130392881
 21
134.37594828508608
  0
LINE
  8
____
 62
     2
  6
continuous
 10
196.04588130392855
 20
54.070740974689834
 11
198.04588130393728
 21
54.070740974690992
  0
LINE
  8
____
 62
     2
  6
continuous
 10
196.04588130392855
 20
54.070740974689834
 11
196.04588130392855
 21
92.739809152510929
  0
LINE
  8
____
 62
     2
  6
continuous
 10
196.04588130392855
 20
95.736862349773503
 11
196.04588130392855
 21
134.37594828509017
  0
LINE
  8
____
 62
     7
  6
line_font22
 10
197.04588130393219
 20
52.664439161962335
 11
197.04588130393199
 21
136.35057061967552
  0
LINE
  8
____
 62
     7
  6
continuous
 10
195.55214517044112
 20
95.736862349772949
 11
198.66494492809949
 21
95.736862349773617
  0
LINE
  8
____
 62
     7
  6
continuous
 10
195.55214517044075
 20
92.739809152511413
 11
198.66494492809957
 21
92.739809152510958
  0
LINE
  8
____
 62
     3
  6
line_font16
 10
196.04588130392835
 20
125.37594828508924
 11
198.04588130392926
 21
125.37594828508924
  0
LINE
  8
____
 62
     3
  6
line_font16
 10
198.04588130393381
 20
119.37594828508821
 11
196.04588130392835
 21
119.37594828508821
  0
LINE
  8
____
 62
     3
  6
line_font16
 10
198.04588130393654
 20
70.070740974687112
 11
196.04588130392855
 21
70.070740974687112
  0
LINE
  8
____
 62
     3
  6
line_font16
 10
196.04588130392855
 20
64.070740974687098
 11
198.04588130393682
 21
64.070740974687098
  0
LINE
  8
____
 62
     2
  6
continuous
 10
185.54588130393731
 20
54.070740974690992
 11
185.54588130393529
 21
92.739809152512066
  0
LINE
  8
____
 62
     2
  6
continuous
 10
183.34588130393021
 20
134.37594828508955
 11
185.74588130392885
 21
134.37594828508438
  0
LINE
  8
____
 62
     2
  6
continuous
 10
183.34588130393021
 20
134.37594828508955
 11
183.34588130392649
 21
135.17594828509229
  0
LINE
  8
____
 62
     2
  6
continuous
 10
183.54588130392656
 20
135.37594828509219
 11
185.54588130392239
 21
135.37594828508335
  0
LINE
  8
____
 62
     2
  6
continuous
 10
185.74588130392885
 20
134.37594828508438
 11
185.74588130392183
 21
135.17594828508547
  0
LINE
  8
____
 62
     2
  6
continuous
 10
185.5458813039304
 20
95.736862349773503
 11
185.54588130392884
 21
134.37594828508608
  0
LINE
  8
____
 62
     2
  6
continuous
 10
183.54588130392858
 20
54.070740974689834
 11
185.54588130393731
 21
54.070740974690992
  0
LINE
  8
____
 62
     2
  6
continuous
 10
183.54588130392858
 20
54.070740974689834
 11
183.54588130392858
 21
92.739809152510929
  0
LINE
  8
____
 62
     2
  6
continuous
 10
183.54588130392858
 20
95.736862349773503
 11
183.54588130392858
 21
134.37594828509017
  0
LINE
  8
____
 62
     7
  6
line_font22
 10
184.54588130393222
 20
52.664439161962335
 11
184.54588130393202
 21
136.35057061967552
  0
LINE
  8
____
 62
     7
  6
continuous
 10
183.05214517044112
 20
95.736862349772949
 11
186.16494492809952
 21
95.736862349773617
  0
LINE
  8
____
 62
     7
  6
continuous
 10
183.05214517044078
 20
92.739809152511413
 11
186.1649449280996
 21
92.739809152510958
  0
LINE
  8
____
 62
     3
  6
line_font16
 10
183.54588130392838
 20
125.37594828508924
 11
185.54588130392929
 21
125.37594828508924
  0
LINE
  8
____
 62
     3
  6
line_font16
 10
185.54588130393384
 20
119.37594828508821
 11
183.54588130392838
 21
119.37594828508821
  0
LINE
  8
____
 62
     3
  6
line_font16
 10
185.54588130393657
 20
70.070740974687112
 11
183.54588130392858
 21
70.070740974687112
  0
LINE
  8
____
 62
     3
  6
line_font16
 10
183.54588130392858
 20
64.070740974687098
 11
185.54588130393685
 21
64.070740974687098
  0
LINE
  8
____
 62
     3
  6
continuous
 10
198.04588130393381
 20
119.37594828508871
 11
208.54588130392855
 21
119.37594828508823
  0
LINE
  8
____
 62
     3
  6
continuous
 10
198.04588130393364
 20
125.37594828508841
 11
208.54588130392855
 21
125.37594828508844
  0
LINE
  8
____
 62
     3
  6
line_font21
 10
198.04588130393364
 20
125.12594828508918
 11
208.54588130392855
 21
125.12594828508814
  0
LINE
  8
____
 62
     3
  6
line_font21
 10
198.04588130393381
 20
119.62594828508826
 11
208.54588130392855
 21
119.62594828508864
  0
LINE
  8
____
 62
     3
  6
continuous
 10
198.04588130393665
 20
64.070740974687212
 11
208.54588130392855
 21
64.070740974687098
  0
LINE
  8
____
 62
     3
  6
continuous
 10
198.04588130393645
 20
70.070740974687212
 11
208.54588130392855
 21
70.070740974687112
  0
LINE
  8
____
 62
     3
  6
line_font21
 10
198.04588130393645
 20
69.820740974687467
 11
208.54588130392855
 21
69.820740974687126
  0
LINE
  8
____
 62
     3
  6
line_font21
 10
198.04588130393665
 20
64.320740974686984
 11
208.54588130392855
 21
64.320740974687169
  0
LINE
  8
____
 62
     3
  6
continuous
 10
178.8427702907793
 20
119.37594828508986
 11
183.54588130392847
 21
119.37594828508966
  0
LINE
  8
____
 62
     3
  6
continuous
 10
185.54588130393384
 20
119.37594828508951
 11
196.04588130392847
 21
119.37594828508882
  0
LINE
  8
____
 62
     3
  6
continuous
 10
178.84277029077919
 20
125.37594828508864
 11
183.54588130392847
 21
125.3759482850885
  0
LINE
  8
____
 62
     3
  6
continuous
 10
185.54588130393358
 20
125.3759482850885
 11
196.04588130392847
 21
125.37594828508841
  0
LINE
  8
____
 62
     3
  6
line_font21
 10
178.84277029077919
 20
125.12594828509094
 11
183.54588130392847
 21
125.12594828509071
  0
LINE
  8
____
 62
     3
  6
line_font21
 10
185.54588130393367
 20
125.12594828509057
 11
196.04588130392847
 21
125.12594828508939
  0
LINE
  8
____
 62
     3
  6
line_font21
 10
178.8427702907793
 20
119.62594828508701
 11
183.54588130392847
 21
119.6259482850875
  0
LINE
  8
____
 62
     3
  6
line_font21
 10
185.54588130393384
 20
119.62594828508765
 11
196.04588130392847
 21
119.62594828508814
  0
LINE
  8
____
 62
     3
  6
continuous
 10
178.8427702907793
 20
64.070740974687524
 11
183.54588130392847
 21
64.070740974687524
  0
LINE
  8
____
 62
     3
  6
continuous
 10
185.54588130393677
 20
64.070740974687496
 11
196.04588130392847
 21
64.07074097468724
  0
LINE
  8
____
 62
     3
  6
continuous
 10
178.84277029077919
 20
70.070740974687581
 11
183.54588130392847
 21
70.070740974687439
  0
LINE
  8
____
 62
     3
  6
continuous
 10
185.5458813039364
 20
70.070740974687382
 11
196.04588130392847
 21
70.07074097468724
  0
LINE
  8
____
 62
     3
  6
line_font21
 10
178.84277029077919
 20
69.820740974688519
 11
183.54588130392847
 21
69.82074097468832
  0
LINE
  8
____
 62
     3
  6
line_font21
 10
185.5458813039364
 20
69.820740974688235
 11
196.04588130392847
 21
69.820740974687567
  0
LINE
  8
____
 62
     3
  6
line_font21
 10
178.8427702907793
 20
64.32074097468653
 11
183.54588130392847
 21
64.320740974686558
  0
LINE
  8
____
 62
     3
  6
line_font21
 10
185.54588130393665
 20
64.320740974686586
 11
196.04588130392847
 21
64.320740974686942
  0
LINE
  8
____
 62
     2
  6
continuous
 10
169.96401512524153
 20
109.81996030186492
 11
169.96401512524307
 21
134.37594828508608
  0
LINE
  8
____
 62
     2
  6
continuous
 10
171.96401512524335
 20
109.81996030186492
 11
171.96401512524335
 21
134.37594828509017
  0
LINE
  8
____
 62
     7
  6
continuous
 10
172.53427778004115
 20
109.8199603018637
 11
169.42147802238267
 21
109.81996030186504
  0
LINE
  8
____
 62
     2
  6
continuous
 10
169.9640151252346
 20
54.070740974690992
 11
169.96401512523661
 21
87.242657030771952
  0
LINE
  8
____
 62
     2
  6
continuous
 10
171.96401512524335
 20
54.070740974689834
 11
171.96401512524335
 21
87.242657030770815
  0
LINE
  8
____
 62
     7
  6
continuous
 10
172.53427778004004
 20
87.242657030772477
 11
169.42147802238267
 21
87.242657030772506
  0
LINE
  8
____
 62
     4
  6
continuous
 10
214.92088130393336
 20
70.230740974686654
 11
213.67088130393336
 21
70.230740974686739
  0
LINE
  8
____
 62
     4
  6
continuous
 10
214.92088130393327
 20
70.070740974686615
 11
213.67088130393327
 21
70.0707409746868
  0
LINE
  8
____
 62
     4
  6
continuous
 10
214.92088130393336
 20
70.230740974686654
 11
214.92088130393327
 21
70.070740974686615
  0
LINE
  8
____
 62
     4
  6
continuous
 10
213.67088130393336
 20
70.230740974686739
 11
213.67088130393327
 21
70.0707409746868
  0
LINE
  8
____
 62
     4
  6
continuous
 10
213.77088130393338
 20
70.230740974686739
 11
213.77088130393346
 21
70.352940162109221
  0
LINE
  8
____
 62
     4
  6
continuous
 10
214.82088130393336
 20
70.230740974686654
 11
214.82088130393345
 21
70.35294016210905
  0
LINE
  8
____
 62
     4
  6
continuous
 10
214.90588130392621
 20
63.760740974688396
 11
213.68588130392624
 21
63.760740974688304
  0
LINE
  8
____
 62
     4
  6
continuous
 10
214.90588130392621
 20
63.760740974688396
 11
214.90588130392621
 21
63.910740974688395
  0
LINE
  8
____
 62
     4
  6
continuous
 10
213.68588130392624
 20
63.760740974688304
 11
213.68588130392624
 21
63.910740974688309
  0
LINE
  8
____
 62
     4
  6
continuous
 10
214.92088130392628
 20
63.910740974688395
 11
213.67088130392628
 21
63.910740974688309
  0
LINE
  8
____
 62
     4
  6
continuous
 10
214.37088130392627
 20
63.760740974688304
 11
214.31318899623398
 21
63.910740974688309
  0
LINE
  8
____
 62
     4
  6
continuous
 10
214.27088130392627
 20
63.760740974688304
 11
214.21318899623398
 21
63.910740974688309
  0
LINE
  8
____
 62
     4
  6
continuous
 10
214.92088130392619
 20
64.070740974688434
 11
213.67088130392619
 21
64.070740974688249
  0
LINE
  8
____
 62
     4
  6
continuous
 10
214.92088130392628
 20
63.910740974688395
 11
214.92088130392619
 21
64.070740974688434
  0
LINE
  8
____
 62
     4
  6
continuous
 10
213.67088130392628
 20
63.910740974688309
 11
213.67088130392619
 21
64.070740974688249
  0
LINE
  8
____
 62
     4
  6
continuous
 10
214.04588130392628
 20
63.260740974688304
 11
214.54588130392628
 21
63.260740974688396
  0
LINE
  8
____
 62
     4
  6
continuous
 10
214.29588130392628
 20
63.405078541985716
 11
214.29588130392628
 21
63.760740974688304
  0
LINE
  8
____
 62
     4
  6
continuous
 10
214.79588130392628
 20
63.405078541985802
 11
214.79588130392628
 21
63.760740974688396
  0
LINE
  8
____
 62
     4
  6
continuous
 10
213.79588130392628
 20
63.405078541985716
 11
213.79588130392628
 21
63.760740974688304
  0
LINE
  8
____
 62
     4
  6
continuous
 10
214.59588130393283
 20
62.830740974704568
 11
213.99588130393437
 21
62.830740974696198
  0
LINE
  8
____
 62
     4
  6
continuous
 10
214.09588130394474
 20
62.730740974697653
 11
213.99588130393573
 21
62.830740974679557
  0
LINE
  8
____
 62
     4
  6
continuous
 10
214.49588130396148
 20
62.73074097469302
 11
214.09588130394474
 21
62.730740974697653
  0
LINE
  8
____
 62
     4
  6
continuous
 10
214.49588130396148
 20
62.73074097469302
 11
214.59588130393456
 21
62.830740974684922
  0
LINE
  8
____
 62
     4
  6
continuous
 10
214.09588130393593
 20
62.730740974683194
 11
214.0958813039351
 21
63.260740974669481
  0
LINE
  8
____
 62
     4
  6
continuous
 10
214.49588130393454
 20
62.730740974691379
 11
214.4958813039342
 21
63.260740974669481
  0
LINE
  8
____
 62
     4
  6
continuous
 10
213.99588130393573
 20
62.830740974679557
 11
213.99588130393536
 21
63.260740974669389
  0
LINE
  8
____
 62
     4
  6
continuous
 10
214.59588130393456
 20
62.830740974684922
 11
214.59588130393436
 21
63.260740974669481
  0
LINE
  8
____
 62
     4
  6
continuous
 10
216.670881303931
 20
70.230740974686654
 11
217.920881303931
 21
70.230740974686739
  0
LINE
  8
____
 62
     4
  6
continuous
 10
216.67088130393108
 20
70.070740974686615
 11
217.92088130393108
 21
70.0707409746868
  0
LINE
  8
____
 62
     4
  6
continuous
 10
216.670881303931
 20
70.230740974686654
 11
216.67088130393108
 21
70.070740974686615
  0
LINE
  8
____
 62
     4
  6
continuous
 10
217.920881303931
 20
70.230740974686739
 11
217.92088130393108
 21
70.0707409746868
  0
LINE
  8
____
 62
     4
  6
continuous
 10
217.820881303931
 20
70.230740974686739
 11
217.82088130393092
 21
70.352940162109221
  0
LINE
  8
____
 62
     4
  6
continuous
 10
216.77088130393099
 20
70.230740974686654
 11
216.77088130393091
 21
70.35294016210905
  0
LINE
  8
____
 62
     4
  6
continuous
 10
216.68588130393815
 20
63.760740974688396
 11
217.90588130393814
 21
63.760740974688304
  0
LINE
  8
____
 62
     4
  6
continuous
 10
216.68588130393815
 20
63.760740974688396
 11
216.68588130393815
 21
63.910740974688395
  0
LINE
  8
____
 62
     4
  6
continuous
 10
217.90588130393814
 20
63.760740974688304
 11
217.90588130393814
 21
63.910740974688309
  0
LINE
  8
____
 62
     4
  6
continuous
 10
216.6708813039381
 20
63.910740974688395
 11
217.9208813039381
 21
63.910740974688309
  0
LINE
  8
____
 62
     4
  6
continuous
 10
217.22088130393809
 20
63.760740974688304
 11
217.27857361163038
 21
63.910740974688309
  0
LINE
  8
____
 62
     4
  6
continuous
 10
217.32088130393811
 20
63.760740974688304
 11
217.37857361163037
 21
63.910740974688309
  0
LINE
  8
____
 62
     4
  6
continuous
 10
216.67088130393819
 20
64.070740974688434
 11
217.92088130393819
 21
64.070740974688249
  0
LINE
  8
____
 62
     4
  6
continuous
 10
216.6708813039381
 20
63.910740974688395
 11
216.67088130393819
 21
64.070740974688434
  0
LINE
  8
____
 62
     4
  6
continuous
 10
217.9208813039381
 20
63.910740974688309
 11
217.92088130393819
 21
64.070740974688249
  0
LINE
  8
____
 62
     4
  6
continuous
 10
217.5458813039381
 20
63.260740974688304
 11
217.0458813039381
 21
63.260740974688396
  0
LINE
  8
____
 62
     4
  6
continuous
 10
217.2958813039381
 20
63.405078541985716
 11
217.2958813039381
 21
63.760740974688304
  0
LINE
  8
____
 62
     4
  6
continuous
 10
216.7958813039381
 20
63.405078541985802
 11
216.7958813039381
 21
63.760740974688396
  0
LINE
  8
____
 62
     4
  6
continuous
 10
217.7958813039381
 20
63.405078541985716
 11
217.7958813039381
 21
63.760740974688304
  0
LINE
  8
____
 62
     4
  6
continuous
 10
216.99588130393155
 20
62.830740974704568
 11
217.59588130393001
 21
62.830740974696198
  0
LINE
  8
____
 62
     4
  6
continuous
 10
217.49588130391965
 20
62.730740974697653
 11
217.59588130392865
 21
62.830740974679557
  0
LINE
  8
____
 62
     4
  6
continuous
 10
217.0958813039029
 20
62.73074097469302
 11
217.49588130391965
 21
62.730740974697653
  0
LINE
  8
____
 62
     4
  6
continuous
 10
217.0958813039029
 20
62.73074097469302
 11
216.99588130392982
 21
62.830740974684922
  0
LINE
  8
____
 62
     4
  6
continuous
 10
217.49588130392846
 20
62.730740974683194
 11
217.49588130392928
 21
63.260740974669481
  0
LINE
  8
____
 62
     4
  6
continuous
 10
217.09588130392981
 20
62.730740974691379
 11
217.09588130393018
 21
63.260740974669481
  0
LINE
  8
____
 62
     4
  6
continuous
 10
217.59588130392865
 20
62.830740974679557
 11
217.59588130392899
 21
63.260740974669389
  0
LINE
  8
____
 62
     4
  6
continuous
 10
216.99588130392982
 20
62.830740974684922
 11
216.99588130392999
 21
63.260740974669481
  0
LINE
  8
____
 62
     2
  6
continuous
 10
216.04588130393245
 20
70.070740974687354
 11
216.04588130393236
 21
64.070740974686885
  0
LINE
  8
____
 62
     2
  6
continuous
 10
215.54588130393256
 20
70.070740974687354
 11
215.54588130393245
 21
64.070740974686885
  0
LINE
  8
____
 62
     3
  6
continuous
 10
210.54588130393682
 20
64.070740974687098
 11
215.54588130393302
 21
64.070740974686871
  0
LINE
  8
____
 62
     3
  6
continuous
 10
216.04588130393245
 20
64.070740974686871
 11
221.04588130392764
 21
64.070740974687013
  0
LINE
  8
____
 62
     3
  6
continuous
 10
210.54588130393654
 20
70.070740974687112
 11
215.54588130393256
 21
70.07074097468734
  0
LINE
  8
____
 62
     3
  6
continuous
 10
216.04588130393245
 20
70.070740974687354
 11
221.04588130392801
 21
70.070740974687212
  0
LINE
  8
____
 62
     3
  6
line_font21
 10
210.54588130393682
 20
64.320740974687155
 11
215.54588130393302
 21
64.320740974687055
  0
LINE
  8
____
 62
     3
  6
line_font21
 10
216.04588130393256
 20
64.320740974687055
 11
221.04588130392764
 21
64.320740974686998
  0
LINE
  8
____
 62
     3
  6
continuous
 10
215.54588130393302
 20
64.320740974687055
 11
216.04588130393256
 21
64.320740974687055
  0
LINE
  8
____
 62
     3
  6
line_font21
 10
210.54588130393654
 20
69.820740974687098
 11
215.5458813039331
 21
69.820740974687126
  0
LINE
  8
____
 62
     3
  6
line_font21
 10
216.04588130393265
 20
69.820740974687126
 11
221.0458813039279
 21
69.820740974687183
  0
LINE
  8
____
 62
     3
  6
continuous
 10
215.5458813039331
 20
69.820740974687126
 11
216.04588130393265
 21
69.820740974687126
  0
LINE
  8
____
 62
     4
  6
continuous
 10
214.92088130393336
 20
125.53594828508795
 11
213.67088130393336
 21
125.53594828508804
  0
LINE
  8
____
 62
     4
  6
continuous
 10
214.92088130393327
 20
125.37594828508792
 11
213.67088130393327
 21
125.3759482850881
  0
LINE
  8
____
 62
     4
  6
continuous
 10
214.92088130393336
 20
125.53594828508795
 11
214.92088130393327
 21
125.37594828508792
  0
LINE
  8
____
 62
     4
  6
continuous
 10
213.67088130393336
 20
125.53594828508804
 11
213.67088130393327
 21
125.3759482850881
  0
LINE
  8
____
 62
     4
  6
continuous
 10
213.77088130393338
 20
125.53594828508804
 11
213.77088130393346
 21
125.65814747251052
  0
LINE
  8
____
 62
     4
  6
continuous
 10
214.82088130393336
 20
125.53594828508795
 11
214.82088130393345
 21
125.65814747251034
  0
LINE
  8
____
 62
     4
  6
continuous
 10
214.90588130392621
 20
119.06594828508969
 11
213.68588130392624
 21
119.0659482850896
  0
LINE
  8
____
 62
     4
  6
continuous
 10
214.90588130392621
 20
119.06594828508969
 11
214.90588130392621
 21
119.21594828508969
  0
LINE
  8
____
 62
     4
  6
continuous
 10
213.68588130392624
 20
119.0659482850896
 11
213.68588130392624
 21
119.21594828508961
  0
LINE
  8
____
 62
     4
  6
continuous
 10
214.92088130392628
 20
119.21594828508969
 11
213.67088130392628
 21
119.21594828508961
  0
LINE
  8
____
 62
     4
  6
continuous
 10
214.37088130392627
 20
119.0659482850896
 11
214.31318899623398
 21
119.21594828508961
  0
LINE
  8
____
 62
     4
  6
continuous
 10
214.27088130392627
 20
119.0659482850896
 11
214.21318899623398
 21
119.21594828508961
  0
LINE
  8
____
 62
     4
  6
continuous
 10
214.92088130392619
 20
119.37594828508973
 11
213.67088130392619
 21
119.37594828508955
  0
LINE
  8
____
 62
     4
  6
continuous
 10
214.92088130392628
 20
119.21594828508969
 11
214.92088130392619
 21
119.37594828508973
  0
LINE
  8
____
 62
     4
  6
continuous
 10
213.67088130392628
 20
119.21594828508961
 11
213.67088130392619
 21
119.37594828508955
  0
LINE
  8
____
 62
     4
  6
continuous
 10
214.04588130392628
 20
118.5659482850896
 11
214.54588130392628
 21
118.56594828508969
  0
LINE
  8
____
 62
     4
  6
continuous
 10
214.29588130392628
 20
118.71028585238702
 11
214.29588130392628
 21
119.0659482850896
  0
LINE
  8
____
 62
     4
  6
continuous
 10
214.79588130392628
 20
118.7102858523871
 11
214.79588130392628
 21
119.06594828508969
  0
LINE
  8
____
 62
     4
  6
continuous
 10
213.79588130392628
 20
118.71028585238702
 11
213.79588130392628
 21
119.0659482850896
  0
LINE
  8
____
 62
     4
  6
continuous
 10
214.59588130393283
 20
118.13594828510587
 11
213.99588130393437
 21
118.1359482850975
  0
LINE
  8
____
 62
     4
  6
continuous
 10
214.09588130394474
 20
118.03594828509895
 11
213.99588130393573
 21
118.13594828508086
  0
LINE
  8
____
 62
     4
  6
continuous
 10
214.49588130396148
 20
118.03594828509432
 11
214.09588130394474
 21
118.03594828509895
  0
LINE
  8
____
 62
     4
  6
continuous
 10
214.49588130396148
 20
118.03594828509432
 11
214.59588130393456
 21
118.13594828508622
  0
LINE
  8
____
 62
     4
  6
continuous
 10
214.09588130393593
 20
118.03594828508449
 11
214.0958813039351
 21
118.56594828507077
  0
LINE
  8
____
 62
     4
  6
continuous
 10
214.49588130393454
 20
118.03594828509267
 11
214.4958813039342
 21
118.56594828507077
  0
LINE
  8
____
 62
     4
  6
continuous
 10
213.99588130393573
 20
118.13594828508086
 11
213.99588130393536
 21
118.56594828507069
  0
LINE
  8
____
 62
     4
  6
continuous
 10
214.59588130393456
 20
118.13594828508622
 11
214.59588130393436
 21
118.56594828507077
  0
LINE
  8
____
 62
     4
  6
continuous
 10
217.92088130393336
 20
125.53594828508795
 11
216.67088130393336
 21
125.53594828508804
  0
LINE
  8
____
 62
     4
  6
continuous
 10
217.92088130393327
 20
125.37594828508792
 11
216.67088130393327
 21
125.3759482850881
  0
LINE
  8
____
 62
     4
  6
continuous
 10
217.92088130393336
 20
125.53594828508795
 11
217.92088130393327
 21
125.37594828508792
  0
LINE
  8
____
 62
     4
  6
continuous
 10
216.67088130393336
 20
125.53594828508804
 11
216.67088130393327
 21
125.3759482850881
  0
LINE
  8
____
 62
     4
  6
continuous
 10
216.77088130393338
 20
125.53594828508804
 11
216.77088130393346
 21
125.65814747251052
  0
LINE
  8
____
 62
     4
  6
continuous
 10
217.82088130393336
 20
125.53594828508795
 11
217.82088130393345
 21
125.65814747251034
  0
LINE
  8
____
 62
     4
  6
continuous
 10
217.90588130392621
 20
119.06594828508969
 11
216.68588130392624
 21
119.0659482850896
  0
LINE
  8
____
 62
     4
  6
continuous
 10
217.90588130392621
 20
119.06594828508969
 11
217.90588130392621
 21
119.21594828508969
  0
LINE
  8
____
 62
     4
  6
continuous
 10
216.68588130392624
 20
119.0659482850896
 11
216.68588130392624
 21
119.21594828508961
  0
LINE
  8
____
 62
     4
  6
continuous
 10
217.92088130392628
 20
119.21594828508969
 11
216.67088130392628
 21
119.21594828508961
  0
LINE
  8
____
 62
     4
  6
continuous
 10
217.37088130392627
 20
119.0659482850896
 11
217.31318899623398
 21
119.21594828508961
  0
LINE
  8
____
 62
     4
  6
continuous
 10
217.27088130392627
 20
119.0659482850896
 11
217.21318899623398
 21
119.21594828508961
  0
LINE
  8
____
 62
     4
  6
continuous
 10
217.92088130392619
 20
119.37594828508973
 11
216.67088130392619
 21
119.37594828508955
  0
LINE
  8
____
 62
     4
  6
continuous
 10
217.92088130392628
 20
119.21594828508969
 11
217.92088130392619
 21
119.37594828508973
  0
LINE
  8
____
 62
     4
  6
continuous
 10
216.67088130392628
 20
119.21594828508961
 11
216.67088130392619
 21
119.37594828508955
  0
LINE
  8
____
 62
     4
  6
continuous
 10
217.04588130392628
 20
118.5659482850896
 11
217.54588130392628
 21
118.56594828508969
  0
LINE
  8
____
 62
     4
  6
continuous
 10
217.29588130392628
 20
118.71028585238702
 11
217.29588130392628
 21
119.0659482850896
  0
LINE
  8
____
 62
     4
  6
continuous
 10
217.79588130392628
 20
118.7102858523871
 11
217.79588130392628
 21
119.06594828508969
  0
LINE
  8
____
 62
     4
  6
continuous
 10
216.79588130392628
 20
118.71028585238702
 11
216.79588130392628
 21
119.0659482850896
  0
LINE
  8
____
 62
     4
  6
continuous
 10
217.59588130393283
 20
118.13594828510587
 11
216.99588130393437
 21
118.1359482850975
  0
LINE
  8
____
 62
     4
  6
continuous
 10
217.09588130394474
 20
118.03594828509895
 11
216.99588130393573
 21
118.13594828508086
  0
LINE
  8
____
 62
     4
  6
continuous
 10
217.49588130396148
 20
118.03594828509432
 11
217.09588130394474
 21
118.03594828509895
  0
LINE
  8
____
 62
     4
  6
continuous
 10
217.49588130396148
 20
118.03594828509432
 11
217.59588130393456
 21
118.13594828508622
  0
LINE
  8
____
 62
     4
  6
continuous
 10
217.09588130393593
 20
118.03594828508449
 11
217.0958813039351
 21
118.56594828507077
  0
LINE
  8
____
 62
     4
  6
continuous
 10
217.49588130393454
 20
118.03594828509267
 11
217.4958813039342
 21
118.56594828507077
  0
LINE
  8
____
 62
     4
  6
continuous
 10
216.99588130393573
 20
118.13594828508086
 11
216.99588130393536
 21
118.56594828507069
  0
LINE
  8
____
 62
     4
  6
continuous
 10
217.59588130393456
 20
118.13594828508622
 11
217.59588130393436
 21
118.56594828507077
  0
LINE
  8
____
 62
     2
  6
continuous
 10
216.04588130393228
 20
125.37594828508878
 11
216.04588130393228
 21
119.37594828508837
  0
LINE
  8
____
 62
     2
  6
continuous
 10
215.54588130393236
 20
125.37594828508878
 11
215.54588130393236
 21
119.37594828508837
  0
LINE
  8
____
 62
     3
  6
continuous
 10
210.54588130393381
 20
119.37594828508821
 11
215.54588130393228
 21
119.37594828508834
  0
LINE
  8
____
 62
     3
  6
continuous
 10
216.04588130393219
 20
119.37594828508834
 11
221.04588130393054
 21
119.37594828508833
  0
LINE
  8
____
 62
     3
  6
continuous
 10
210.54588130393364
 20
125.37594828508848
 11
215.54588130393219
 21
125.37594828508884
  0
LINE
  8
____
 62
     3
  6
continuous
 10
216.04588130393211
 20
125.37594828508884
 11
221.04588130393091
 21
125.37594828508855
  0
LINE
  8
____
 62
     3
  6
line_font21
 10
210.54588130393381
 20
119.62594828508867
 11
215.54588130393211
 21
119.62594828508929
  0
LINE
  8
____
 62
     3
  6
line_font21
 10
216.04588130393211
 20
119.62594828508929
 11
221.04588130393054
 21
119.62594828508864
  0
LINE
  8
____
 62
     3
  6
continuous
 10
215.54588130393211
 20
119.62594828508929
 11
216.04588130393211
 21
119.62594828508929
  0
LINE
  8
____
 62
     3
  6
line_font21
 10
210.54588130393364
 20
125.1259482850881
 11
215.54588130393211
 21
125.12594828508834
  0
LINE
  8
____
 62
     3
  6
line_font21
 10
216.04588130393211
 20
125.12594828508837
 11
221.04588130393091
 21
125.12594828508833
  0
LINE
  8
____
 62
     3
  6
continuous
 10
215.54588130393211
 20
125.12594828508834
 11
216.04588130393211
 21
125.12594828508837
  0
LINE
  8
____
 62
     3
  6
continuous
 10
171.9640151252398
 20
97.63130866631839
 11
171.9640151252398
 21
99.431308666318387
  0
LINE
  8
____
 62
     3
  6
continuous
 10
171.8640151252398
 20
99.531308666318395
 11
170.06401512523979
 21
99.531308666318395
  0
LINE
  8
____
 62
     3
  6
continuous
 10
169.9640151252398
 20
99.431308666318387
 11
169.9640151252398
 21
97.63130866631839
  0
LINE
  8
____
 62
     3
  6
continuous
 10
171.8640151252398
 20
97.531308666318395
 11
170.06401512523979
 21
97.531308666318395
  0
LINE
  8
____
 62
     3
  6
continuous
 10
170.08401512523977
 20
98.839390307473082
 11
170.08401512523977
 21
97.751308666318394
  0
LINE
  8
____
 62
     3
  6
continuous
 10
171.7440151252398
 20
99.411308666318391
 11
170.6559334840851
 21
99.411308666318391
  0
LINE
  8
____
 62
     3
  6
continuous
 10
171.84401512523982
 20
98.223227025163695
 11
171.84401512523982
 21
99.311308666318382
  0
LINE
  8
____
 62
     3
  6
continuous
 10
171.2720967663945
 20
97.6513086663184
 11
170.18401512523977
 21
97.6513086663184
  0
LINE
  8
____
 62
     7
  6
line_font22
 10
170.9640151252398
 20
97.031308666318395
 11
170.9640151252398
 21
100.0313086663184
  0
LINE
  8
____
 62
     7
  6
line_font22
 10
172.4640151252398
 20
98.531308666318395
 11
169.4640151252398
 21
98.531308666318395
  0
LINE
  8
____
 62
     4
  6
continuous
 10
171.9640151252398
 20
100.43130866631839
 11
171.9640151252398
 21
105.43130866631839
  0
LINE
  8
____
 62
     4
  6
continuous
 10
169.9640151252398
 20
100.43130866631839
 11
169.9640151252398
 21
105.43130866631839
  0
LINE
  8
____
 62
     4
  6
continuous
 10
164.06401512523979
 20
97.531308666318395
 11
169.06401512523979
 21
97.531308666318395
  0
LINE
  8
____
 62
     4
  6
continuous
 10
164.06401512523979
 20
99.531308666318395
 11
169.06401512523979
 21
99.531308666318395
  0
LINE
  8
____
 62
     7
  6
line_font22
 10
170.96401512523971
 20
52.664439161962335
 11
170.9640151252398
 21
94.64915224671968
  0
LINE
  8
____
 62
     7
  6
line_font22
 10
170.9640151252398
 20
102.09538350561974
 11
170.96401512523988
 21
136.35057061967552
  0
LINE
  8
____
 62
     2
  6
continuous
 10
224.23984927141197
 20
81.919079462125154
 11
226.42361042470444
 21
81.919079462124856
  0
LINE
  8
____
 62
     2
  6
continuous
 10
226.42361042470444
 20
81.919079462124856
 11
226.4236104247039
 21
78.401607175490312
  0
LINE
  8
____
 62
     2
  6
continuous
 10
226.4236104247039
 20
78.401607175490312
 11
226.92461949768727
 21
80.326536771687643
  0
LINE
  8
____
 62
     2
  6
continuous
 10
226.92461949768727
 20
80.326536771687643
 11
226.16477886760936
 21
80.782441149734382
  0
LINE
  8
____
 62
     2
  6
continuous
 10
207.35191333645241
 20
81.919079462125154
 11
205.16815218315992
 21
81.919079462124856
  0
LINE
  8
____
 62
     2
  6
continuous
 10
205.16815218315992
 20
81.919079462124856
 11
205.16815218316049
 21
78.401607175490312
  0
LINE
  8
____
 62
     2
  6
continuous
 10
205.16815218316049
 20
78.401607175490312
 11
204.66714311017711
 21
80.326536771687643
  0
LINE
  8
____
 62
     2
  6
continuous
 10
204.66714311017711
 20
80.326536771687643
 11
205.426983740255
 21
80.782441149734382
  0
LINE
  8
____
 62
     7
  6
chain_double_dash
 10
124.75628140703516
 20
49.070740974690679
 11
176.34908747609288
 21
49.070740974690651
  0
LINE
  8
____
 62
     7
  6
line_font22
 10
249.11522459317726
 20
64.553057455072732
 11
249.11522459317726
 21
55.053057455072739
  0
LINE
  8
____
 62
     7
  6
line_font22
 10
245.61522459317726
 20
59.803057455072739
 11
252.61522459317726
 21
59.803057455072739
  0
LINE
  8
____
 62
     6
  6
continuous
 10
247.01522459317727
 20
63.553057455072739
 11
251.21522459317725
 21
63.553057455072739
  0
LINE
  8
____
 62
     6
  6
continuous
 10
251.61522459317726
 20
63.153057455072741
 11
251.61522459317726
 21
56.453057455072738
  0
LINE
  8
____
 62
     6
  6
continuous
 10
247.01522459317727
 20
56.053057455072739
 11
251.21522459317725
 21
56.053057455072739
  0
LINE
  8
____
 62
     6
  6
continuous
 10
246.61522459317726
 20
56.453057455072738
 11
246.61522459317726
 21
63.153057455072741
  0
LINE
  8
____
 62
     6
  6
continuous
 10
251.01522459317727
 20
63.203057455072738
 11
247.21522459317725
 21
63.203057455072738
  0
LINE
  8
____
 62
     6
  6
continuous
 10
251.01522459317727
 20
56.403057455072741
 11
247.21522459317725
 21
56.403057455072741
  0
LINE
  8
____
 62
     6
  6
continuous
 10
251.31522459317728
 20
56.703057455072738
 11
251.31522459317728
 21
62.903057455072741
  0
LINE
  8
____
 62
     6
  6
continuous
 10
246.91522459317727
 20
62.903057455072741
 11
246.91522459317727
 21
56.703057455072738
  0
LINE
  8
____
 62
     4
  6
continuous
 10
251.61522459317726
 20
64.153057455072727
 11
251.61522459317726
 21
69.553057455072789
  0
LINE
  8
____
 62
     4
  6
continuous
 10
246.61522459317726
 20
64.153057455072727
 11
246.61522459317726
 21
69.553057455072789
  0
LINE
  8
____
 62
     4
  6
continuous
 10
241.01522459317727
 20
56.053057455072739
 11
246.01522459317727
 21
56.053057455072739
  0
LINE
  8
____
 62
     4
  6
continuous
 10
241.01522459317727
 20
63.553057455072739
 11
246.01522459317727
 21
63.553057455072739
  0
LINE
  8
____
 62
     7
  6
continuous
 10
245.49255212579772
 20
77.774073658693439
 11
252.98008476034045
 21
77.774073658693439
  0
LINE
  8
____
 62
     4
  6
continuous
 10
96.100721729455444
 20
109.37594828508821
 11
101.16760311024424
 21
109.37594828508821
  0
LINE
  8
____
 62
     4
  6
continuous
 10
96.100721729455444
 20
109.37594828508821
 11
97.577933358973738
 21
109.6364205515886
  0
LINE
  8
____
 62
     4
  6
continuous
 10
96.100721729455444
 20
109.37594828508821
 11
97.577933358973738
 21
109.11547601858781
  0
LINE
  8
____
 62
     4
  6
continuous
 10
169.9640151252398
 20
104.43130866631839
 11
167.67059007573806
 21
104.43130866631839
  0
LINE
  8
____
 62
     4
  6
continuous
 10
169.9640151252398
 20
104.43130866631839
 11
168.48680349572149
 21
104.69178093281879
  0
LINE
  8
____
 62
     4
  6
continuous
 10
169.9640151252398
 20
104.43130866631839
 11
168.48680349572149
 21
104.170836399818
  0
LINE
  8
____
 62
     4
  6
continuous
 10
171.9640151252398
 20
104.43130866631839
 11
176.58920154950692
 21
104.43130866631839
  0
LINE
  8
____
 62
     4
  6
continuous
 10
171.9640151252398
 20
104.43130866631839
 11
173.44122675475808
 21
104.69178093281879
  0
LINE
  8
____
 62
     4
  6
continuous
 10
171.9640151252398
 20
104.43130866631839
 11
173.44122675475808
 21
104.170836399818
  0
LINE
  8
____
 62
     4
  6
continuous
 10
165.06401512523979
 20
99.531308666318409
 11
165.06401512523979
 21
101.84101991347566
  0
LINE
  8
____
 62
     4
  6
continuous
 10
165.06401512523979
 20
99.531308666318409
 11
164.80354285873943
 21
101.00852029583672
  0
LINE
  8
____
 62
     4
  6
continuous
 10
165.06401512523979
 20
99.531308666318409
 11
165.32448739174015
 21
101.00852029583672
  0
LINE
  8
____
 62
     4
  6
continuous
 10
165.06401512523979
 20
97.531308666318424
 11
165.06401512523979
 21
92.922408439706828
  0
LINE
  8
____
 62
     4
  6
continuous
 10
165.06401512523979
 20
97.531308666318424
 11
164.80354285873943
 21
96.05409703680013
  0
LINE
  8
____
 62
     4
  6
continuous
 10
165.06401512523979
 20
97.531308666318424
 11
165.32448739174015
 21
96.05409703680013
  0
LINE
  8
____
 62
     4
  6
continuous
 10
251.31522459317728
 20
61.053057455072661
 11
249.5093684909472
 21
61.053057455072661
  0
LINE
  8
____
 62
     4
  6
continuous
 10
251.31522459317728
 20
61.053057455072661
 11
249.83801296365897
 21
61.313529721573047
  0
LINE
  8
____
 62
     4
  6
continuous
 10
251.31522459317728
 20
61.053057455072661
 11
249.83801296365897
 21
60.792585188572268
  0
LINE
  8
____
 62
     4
  6
continuous
 10
251.61522459317726
 20
61.053057455072661
 11
254.838968824799
 21
61.053057455072661
  0
LINE
  8
____
 62
     4
  6
continuous
 10
251.61522459317726
 20
61.053057455072661
 11
253.09243622269557
 21
61.313529721573047
  0
LINE
  8
____
 62
     4
  6
continuous
 10
251.61522459317726
 20
61.053057455072661
 11
253.09243622269557
 21
60.792585188572268
  0
LINE
  8
____
 62
     4
  6
continuous
 10
247.61522459317726
 20
56.403057455072741
 11
247.61522459317726
 21
58.409725899371985
  0
LINE
  8
____
 62
     4
  6
continuous
 10
247.61522459317726
 20
56.403057455072741
 11
247.35475232667682
 21
57.880269084591035
  0
LINE
  8
____
 62
     4
  6
continuous
 10
247.61522459317726
 20
56.403057455072741
 11
247.8756968596777
 21
57.880269084591035
  0
LINE
  8
____
 62
     4
  6
continuous
 10
247.61522459317726
 20
56.053057455072725
 11
247.61522459317726
 21
49.409617265224249
  0
LINE
  8
____
 62
     4
  6
continuous
 10
247.61522459317726
 20
56.053057455072725
 11
247.35475232667682
 21
54.575845825554431
  0
LINE
  8
____
 62
     4
  6
continuous
 10
247.61522459317726
 20
56.053057455072725
 11
247.8756968596777
 21
54.575845825554431
  0
LINE
  8
____
 62
     4
  6
continuous
 10
50.907784850335219
 20
147.41531594030076
 11
66.57738406832155
 21
147.41531594030079
  0
LINE
  8
____
 62
     6
  6
continuous
 10
210.64838084352144
 20
175.07029099257699
 11
211.64838084352129
 21
175.07029099257699
  0
LINE
  8
____
 62
     6
  6
continuous
 10
170.64838084352144
 20
175.07029099257699
 11
171.64838084352129
 21
175.07029099257699
  0
LINE
  8
____
 62
     6
  6
continuous
 10
130.64838084352144
 20
175.07029099257699
 11
131.64838084352129
 21
175.07029099257699
  0
LINE
  8
____
 62
     6
  6
continuous
 10
211.64838084352138
 20
152.67029099257707
 11
211.64838084352124
 21
155.67029099257704
  0
LINE
  8
____
 62
     6
  6
continuous
 10
210.64838084352138
 20
152.67029099257707
 11
210.64838084352135
 21
155.67029099257704
  0
LINE
  8
____
 62
     6
  6
continuous
 10
171.64838084352138
 20
152.67029099257707
 11
171.64838084352127
 21
155.67029099257707
  0
LINE
  8
____
 62
     6
  6
continuous
 10
170.64838084352138
 20
152.67029099257707
 11
170.64838084352138
 21
155.67029099257707
  0
LINE
  8
____
 62
     6
  6
continuous
 10
131.64838084352138
 20
152.67029099257707
 11
131.64838084352127
 21
155.67029099257709
  0
LINE
  8
____
 62
     6
  6
continuous
 10
130.64838084352138
 20
152.67029099257707
 11
130.64838084352141
 21
155.67029099257709
  0
LINE
  8
____
 62
     6
  6
continuous
 10
211.64838084352124
 20
156.87029099257703
 11
211.64838084352161
 21
173.47029099257702
  0
LINE
  8
____
 62
     6
  6
continuous
 10
211.64838084352161
 20
174.67029099257701
 11
211.64838084352129
 21
175.07029099257699
  0
LINE
  8
____
 62
     6
  6
continuous
 10
210.64838084352135
 20
156.87029099257703
 11
210.64838084352118
 21
173.47029099257702
  0
LINE
  8
____
 62
     6
  6
continuous
 10
210.64838084352115
 20
174.67029099257701
 11
210.64838084352144
 21
175.07029099257699
  0
LINE
  8
____
 62
     6
  6
continuous
 10
171.64838084352127
 20
174.67029099257701
 11
171.64838084352129
 21
175.07029099257699
  0
LINE
  8
____
 62
     6
  6
continuous
 10
170.64838084352138
 20
156.87029099257705
 11
170.64838084352149
 21
173.47029099257702
  0
LINE
  8
____
 62
     6
  6
continuous
 10
170.64838084352152
 20
174.67029099257701
 11
170.64838084352144
 21
175.07029099257699
  0
LINE
  8
____
 62
     6
  6
continuous
 10
131.64838084352129
 20
156.87029099257708
 11
131.64838084352127
 21
173.47029099257708
  0
LINE
  8
____
 62
     6
  6
continuous
 10
131.64838084352127
 20
174.67029099257707
 11
131.64838084352129
 21
175.07029099257699
  0
LINE
  8
____
 62
     6
  6
continuous
 10
130.64838084352141
 20
156.87029099257708
 11
130.64838084352149
 21
173.47029099257713
  0
LINE
  8
____
 62
     6
  6
continuous
 10
130.64838084352149
 20
174.67029099257709
 11
130.64838084352144
 21
175.07029099257699
  0
LINE
  8
____
 62
     2
  6
continuous
 10
171.19838084352273
 20
156.87029099257708
 11
171.19838084352273
 21
155.67029099257709
  0
LINE
  8
____
 62
     2
  6
continuous
 10
171.09838084352273
 20
156.87029099257708
 11
171.09838084352273
 21
155.67029099257709
  0
LINE
  8
____
 62
     2
  6
continuous
 10
171.09838084352072
 20
173.47029099257708
 11
171.09838084352072
 21
174.67029099257704
  0
LINE
  8
____
 62
     2
  6
continuous
 10
171.19838084352071
 20
173.47029099257708
 11
171.19838084352071
 21
174.67029099257704
  0
LINE
  8
____
 62
     2
  6
continuous
 10
211.19838084352205
 20
174.67029099257701
 11
211.19838084352205
 21
173.47029099257702
  0
LINE
  8
____
 62
     2
  6
continuous
 10
211.09838084352202
 20
174.67029099257701
 11
211.09838084352202
 21
173.47029099257702
  0
LINE
  8
____
 62
     2
  6
continuous
 10
211.19838084352313
 20
156.87029099257708
 11
211.19838084352313
 21
155.67029099257707
  0
LINE
  8
____
 62
     2
  6
continuous
 10
211.09838084352313
 20
156.87029099257708
 11
211.09838084352313
 21
155.67029099257707
  0
LINE
  8
____
 62
     2
  6
continuous
 10
129.1483808435211
 20
174.67029099257707
 11
129.14838084352135
 21
173.47029099257711
  0
LINE
  8
____
 62
     2
  6
continuous
 10
129.14838084352101
 20
155.67029099257707
 11
129.14838084352129
 21
156.87029099257711
  0
LINE
  8
____
 62
     6
  6
continuous
 10
171.64838084352127
 20
156.87029099257705
 11
171.64838084352127
 21
173.47029099257702
  0
LINE
  8
____
 62
     2
  6
continuous
 10
172.19838084352133
 20
153.67029099257709
 11
172.59838084352123
 21
153.67029099257709
  0
LINE
  8
____
 62
     7
  6
line_font22
 10
171.14838084352129
 20
151.42471675380941
 11
171.14838084352144
 21
175.86156707366376
  0
LINE
  8
____
 62
     7
  6
line_font22
 10
211.14838084352129
 20
151.42471675380941
 11
211.14838084352152
 21
175.86156707366362
  0
LINE
  8
____
 62
     7
  6
line_font22
 10
131.14838084352129
 20
151.42471675380941
 11
131.14838084352135
 21
175.86156707366391
  0
LINE
  8
____
 62
     2
  6
continuous
 10
174.69838084352133
 20
153.67029099257709
 11
175.09838084352123
 21
153.67029099257709
  0
LINE
  8
____
 62
     2
  6
continuous
 10
177.19838084352133
 20
153.67029099257709
 11
177.59838084352123
 21
153.67029099257709
  0
LINE
  8
____
 62
     2
  6
continuous
 10
179.69838084352133
 20
153.67029099257709
 11
180.09838084352123
 21
153.67029099257709
  0
LINE
  8
____
 62
     2
  6
continuous
 10
182.19838084352133
 20
153.67029099257709
 11
182.59838084352123
 21
153.67029099257709
  0
LINE
  8
____
 62
     2
  6
continuous
 10
184.69838084352133
 20
153.67029099257709
 11
185.09838084352123
 21
153.67029099257709
  0
LINE
  8
____
 62
     2
  6
continuous
 10
187.19838084352133
 20
153.67029099257709
 11
187.59838084352123
 21
153.67029099257709
  0
LINE
  8
____
 62
     2
  6
continuous
 10
189.69838084352133
 20
153.67029099257709
 11
190.09838084352123
 21
153.67029099257709
  0
LINE
  8
____
 62
     2
  6
continuous
 10
192.19838084352133
 20
153.67029099257709
 11
192.59838084352123
 21
153.67029099257709
  0
LINE
  8
____
 62
     2
  6
continuous
 10
194.69838084352133
 20
153.67029099257709
 11
195.09838084352123
 21
153.67029099257709
  0
LINE
  8
____
 62
     2
  6
continuous
 10
197.19838084352133
 20
153.67029099257709
 11
197.59838084352123
 21
153.67029099257709
  0
LINE
  8
____
 62
     2
  6
continuous
 10
199.69838084352133
 20
153.67029099257709
 11
200.09838084352123
 21
153.67029099257709
  0
LINE
  8
____
 62
     2
  6
continuous
 10
202.19838084352133
 20
153.67029099257709
 11
202.59838084352123
 21
153.67029099257709
  0
LINE
  8
____
 62
     2
  6
continuous
 10
204.69838084352133
 20
153.67029099257709
 11
205.09838084352123
 21
153.67029099257709
  0
LINE
  8
____
 62
     2
  6
continuous
 10
207.19838084352133
 20
153.67029099257709
 11
207.59838084352123
 21
153.67029099257709
  0
LINE
  8
____
 62
     2
  6
continuous
 10
209.69838084352133
 20
153.67029099257709
 11
210.09838084352123
 21
153.67029099257709
  0
LINE
  8
____
 62
     2
  6
continuous
 10
132.19838084352136
 20
153.67029099257709
 11
132.59838084352126
 21
153.67029099257709
  0
LINE
  8
____
 62
     2
  6
continuous
 10
134.69838084352136
 20
153.67029099257709
 11
135.09838084352126
 21
153.67029099257709
  0
LINE
  8
____
 62
     2
  6
continuous
 10
137.19838084352136
 20
153.67029099257709
 11
137.59838084352126
 21
153.67029099257709
  0
LINE
  8
____
 62
     2
  6
continuous
 10
139.69838084352136
 20
153.67029099257709
 11
140.09838084352126
 21
153.67029099257709
  0
LINE
  8
____
 62
     2
  6
continuous
 10
142.19838084352136
 20
153.67029099257709
 11
142.59838084352126
 21
153.67029099257709
  0
LINE
  8
____
 62
     2
  6
continuous
 10
144.69838084352136
 20
153.67029099257709
 11
145.09838084352126
 21
153.67029099257709
  0
LINE
  8
____
 62
     2
  6
continuous
 10
147.19838084352136
 20
153.67029099257709
 11
147.59838084352126
 21
153.67029099257709
  0
LINE
  8
____
 62
     2
  6
continuous
 10
149.69838084352136
 20
153.67029099257709
 11
150.09838084352126
 21
153.67029099257709
  0
LINE
  8
____
 62
     2
  6
continuous
 10
152.19838084352136
 20
153.67029099257709
 11
152.59838084352126
 21
153.67029099257709
  0
LINE
  8
____
 62
     2
  6
continuous
 10
154.69838084352136
 20
153.67029099257709
 11
155.09838084352126
 21
153.67029099257709
  0
LINE
  8
____
 62
     2
  6
continuous
 10
157.19838084352136
 20
153.67029099257709
 11
157.59838084352126
 21
153.67029099257709
  0
LINE
  8
____
 62
     2
  6
continuous
 10
159.69838084352136
 20
153.67029099257709
 11
160.09838084352126
 21
153.67029099257709
  0
LINE
  8
____
 62
     2
  6
continuous
 10
162.19838084352136
 20
153.67029099257709
 11
162.59838084352126
 21
153.67029099257709
  0
LINE
  8
____
 62
     2
  6
continuous
 10
164.69838084352136
 20
153.67029099257709
 11
165.09838084352123
 21
153.67029099257709
  0
LINE
  8
____
 62
     2
  6
continuous
 10
167.19838084352136
 20
153.67029099257709
 11
167.59838084352123
 21
153.67029099257709
  0
LINE
  8
____
 62
     2
  6
continuous
 10
169.69838084352136
 20
153.67029099257709
 11
170.09838084352123
 21
153.67029099257709
  0
LINE
  8
____
 62
     2
  6
continuous
 10
129.69838084352136
 20
153.67029099257709
 11
130.09838084352126
 21
153.67029099257709
  0
LINE
  8
____
 62
     2
  6
continuous
 10
212.19838084352133
 20
153.67029099257709
 11
212.59838084352123
 21
153.67029099257709
  0
LINE
  8
____
 62
     2
  6
continuous
 10
214.69838084352133
 20
153.67029099257709
 11
215.09838084352123
 21
153.67029099257709
  0
LINE
  8
____
 62
     2
  6
continuous
 10
217.19838084352133
 20
153.67029099257709
 11
217.59838084352123
 21
153.67029099257709
  0
LINE
  8
____
 62
     2
  6
continuous
 10
172.19838084352142
 20
176.67029099257709
 11
172.59838084352137
 21
176.67029099257721
  0
LINE
  8
____
 62
     2
  6
continuous
 10
172.19838084352133
 20
153.67029099257709
 11
172.19838084352142
 21
176.67029099257709
  0
LINE
  8
____
 62
     2
  6
continuous
 10
172.59838084352123
 20
153.67029099257709
 11
172.59838084352137
 21
176.67029099257721
  0
LINE
  8
____
 62
     2
  6
continuous
 10
174.69838084352142
 20
176.67029099257709
 11
175.09838084352137
 21
176.67029099257721
  0
LINE
  8
____
 62
     2
  6
continuous
 10
174.69838084352133
 20
153.67029099257709
 11
174.69838084352142
 21
176.67029099257709
  0
LINE
  8
____
 62
     2
  6
continuous
 10
175.09838084352123
 20
153.67029099257709
 11
175.09838084352137
 21
176.67029099257721
  0
LINE
  8
____
 62
     2
  6
continuous
 10
177.19838084352142
 20
176.67029099257709
 11
177.59838084352137
 21
176.67029099257721
  0
LINE
  8
____
 62
     2
  6
continuous
 10
177.19838084352133
 20
153.67029099257709
 11
177.19838084352142
 21
176.67029099257709
  0
LINE
  8
____
 62
     2
  6
continuous
 10
177.59838084352123
 20
153.67029099257709
 11
177.59838084352137
 21
176.67029099257721
  0
LINE
  8
____
 62
     2
  6
continuous
 10
179.69838084352142
 20
176.67029099257709
 11
180.09838084352137
 21
176.67029099257721
  0
LINE
  8
____
 62
     2
  6
continuous
 10
179.69838084352133
 20
153.67029099257709
 11
179.69838084352142
 21
176.67029099257709
  0
LINE
  8
____
 62
     2
  6
continuous
 10
180.09838084352123
 20
153.67029099257709
 11
180.09838084352137
 21
176.67029099257721
  0
LINE
  8
____
 62
     2
  6
continuous
 10
182.19838084352142
 20
176.67029099257709
 11
182.59838084352137
 21
176.67029099257721
  0
LINE
  8
____
 62
     2
  6
continuous
 10
182.19838084352133
 20
153.67029099257709
 11
182.19838084352142
 21
176.67029099257709
  0
LINE
  8
____
 62
     2
  6
continuous
 10
182.59838084352123
 20
153.67029099257709
 11
182.59838084352137
 21
176.67029099257721
  0
LINE
  8
____
 62
     2
  6
continuous
 10
184.69838084352142
 20
176.67029099257709
 11
185.09838084352137
 21
176.67029099257721
  0
LINE
  8
____
 62
     2
  6
continuous
 10
184.69838084352133
 20
153.67029099257709
 11
184.69838084352142
 21
176.67029099257709
  0
LINE
  8
____
 62
     2
  6
continuous
 10
185.09838084352123
 20
153.67029099257709
 11
185.09838084352137
 21
176.67029099257721
  0
LINE
  8
____
 62
     2
  6
continuous
 10
187.19838084352142
 20
176.67029099257709
 11
187.59838084352137
 21
176.67029099257721
  0
LINE
  8
____
 62
     2
  6
continuous
 10
187.19838084352133
 20
153.67029099257709
 11
187.19838084352142
 21
176.67029099257709
  0
LINE
  8
____
 62
     2
  6
continuous
 10
187.59838084352123
 20
153.67029099257709
 11
187.59838084352137
 21
176.67029099257721
  0
LINE
  8
____
 62
     2
  6
continuous
 10
189.69838084352142
 20
176.67029099257709
 11
190.09838084352137
 21
176.67029099257721
  0
LINE
  8
____
 62
     2
  6
continuous
 10
189.69838084352133
 20
153.67029099257709
 11
189.69838084352142
 21
176.67029099257709
  0
LINE
  8
____
 62
     2
  6
continuous
 10
190.09838084352123
 20
153.67029099257709
 11
190.09838084352137
 21
176.67029099257721
  0
LINE
  8
____
 62
     2
  6
continuous
 10
192.19838084352142
 20
176.67029099257709
 11
192.59838084352137
 21
176.67029099257721
  0
LINE
  8
____
 62
     2
  6
continuous
 10
192.19838084352133
 20
153.67029099257709
 11
192.19838084352142
 21
176.67029099257709
  0
LINE
  8
____
 62
     2
  6
continuous
 10
192.59838084352123
 20
153.67029099257709
 11
192.59838084352137
 21
176.67029099257721
  0
LINE
  8
____
 62
     2
  6
continuous
 10
194.69838084352142
 20
176.67029099257709
 11
195.09838084352137
 21
176.67029099257721
  0
LINE
  8
____
 62
     2
  6
continuous
 10
194.69838084352133
 20
153.67029099257709
 11
194.69838084352142
 21
176.67029099257709
  0
LINE
  8
____
 62
     2
  6
continuous
 10
195.09838084352123
 20
153.67029099257709
 11
195.09838084352137
 21
176.67029099257721
  0
LINE
  8
____
 62
     2
  6
continuous
 10
197.19838084352142
 20
176.67029099257709
 11
197.59838084352137
 21
176.67029099257721
  0
LINE
  8
____
 62
     2
  6
continuous
 10
197.19838084352133
 20
153.67029099257709
 11
197.19838084352142
 21
176.67029099257709
  0
LINE
  8
____
 62
     2
  6
continuous
 10
197.59838084352123
 20
153.67029099257709
 11
197.59838084352137
 21
176.67029099257721
  0
LINE
  8
____
 62
     2
  6
continuous
 10
199.69838084352142
 20
176.67029099257709
 11
200.09838084352137
 21
176.67029099257721
  0
LINE
  8
____
 62
     2
  6
continuous
 10
199.69838084352133
 20
153.67029099257709
 11
199.69838084352142
 21
176.67029099257709
  0
LINE
  8
____
 62
     2
  6
continuous
 10
200.09838084352123
 20
153.67029099257709
 11
200.09838084352137
 21
176.67029099257721
  0
LINE
  8
____
 62
     2
  6
continuous
 10
202.19838084352142
 20
176.67029099257709
 11
202.59838084352137
 21
176.67029099257721
  0
LINE
  8
____
 62
     2
  6
continuous
 10
202.19838084352133
 20
153.67029099257709
 11
202.19838084352142
 21
176.67029099257709
  0
LINE
  8
____
 62
     2
  6
continuous
 10
202.59838084352123
 20
153.67029099257709
 11
202.59838084352137
 21
176.67029099257721
  0
LINE
  8
____
 62
     2
  6
continuous
 10
204.69838084352142
 20
176.67029099257709
 11
205.09838084352137
 21
176.67029099257721
  0
LINE
  8
____
 62
     2
  6
continuous
 10
204.69838084352133
 20
153.67029099257709
 11
204.69838084352142
 21
176.67029099257709
  0
LINE
  8
____
 62
     2
  6
continuous
 10
205.09838084352123
 20
153.67029099257709
 11
205.09838084352137
 21
176.67029099257721
  0
LINE
  8
____
 62
     2
  6
continuous
 10
207.19838084352142
 20
176.67029099257709
 11
207.59838084352137
 21
176.67029099257721
  0
LINE
  8
____
 62
     2
  6
continuous
 10
207.19838084352133
 20
153.67029099257709
 11
207.19838084352142
 21
176.67029099257709
  0
LINE
  8
____
 62
     2
  6
continuous
 10
207.59838084352123
 20
153.67029099257709
 11
207.59838084352137
 21
176.67029099257721
  0
LINE
  8
____
 62
     2
  6
continuous
 10
209.69838084352142
 20
176.67029099257709
 11
210.09838084352137
 21
176.67029099257721
  0
LINE
  8
____
 62
     2
  6
continuous
 10
209.69838084352133
 20
153.67029099257709
 11
209.69838084352142
 21
176.67029099257709
  0
LINE
  8
____
 62
     2
  6
continuous
 10
210.09838084352123
 20
153.67029099257709
 11
210.09838084352137
 21
176.67029099257721
  0
LINE
  8
____
 62
     2
  6
continuous
 10
132.19838084352142
 20
176.67029099257709
 11
132.5983808435214
 21
176.67029099257721
  0
LINE
  8
____
 62
     2
  6
continuous
 10
132.19838084352136
 20
153.67029099257709
 11
132.19838084352142
 21
176.67029099257709
  0
LINE
  8
____
 62
     2
  6
continuous
 10
132.59838084352126
 20
153.67029099257709
 11
132.5983808435214
 21
176.67029099257721
  0
LINE
  8
____
 62
     2
  6
continuous
 10
134.69838084352142
 20
176.67029099257709
 11
135.0983808435214
 21
176.67029099257721
  0
LINE
  8
____
 62
     2
  6
continuous
 10
134.69838084352136
 20
153.67029099257709
 11
134.69838084352142
 21
176.67029099257709
  0
LINE
  8
____
 62
     2
  6
continuous
 10
135.09838084352126
 20
153.67029099257709
 11
135.0983808435214
 21
176.67029099257721
  0
LINE
  8
____
 62
     2
  6
continuous
 10
137.19838084352142
 20
176.67029099257709
 11
137.5983808435214
 21
176.67029099257721
  0
LINE
  8
____
 62
     2
  6
continuous
 10
137.19838084352136
 20
153.67029099257709
 11
137.19838084352142
 21
176.67029099257709
  0
LINE
  8
____
 62
     2
  6
continuous
 10
137.59838084352126
 20
153.67029099257709
 11
137.5983808435214
 21
176.67029099257721
  0
LINE
  8
____
 62
     2
  6
continuous
 10
139.69838084352142
 20
176.67029099257709
 11
140.0983808435214
 21
176.67029099257721
  0
LINE
  8
____
 62
     2
  6
continuous
 10
139.69838084352136
 20
153.67029099257709
 11
139.69838084352142
 21
176.67029099257709
  0
LINE
  8
____
 62
     2
  6
continuous
 10
140.09838084352126
 20
153.67029099257709
 11
140.0983808435214
 21
176.67029099257721
  0
LINE
  8
____
 62
     2
  6
continuous
 10
142.19838084352142
 20
176.67029099257709
 11
142.5983808435214
 21
176.67029099257721
  0
LINE
  8
____
 62
     2
  6
continuous
 10
142.19838084352136
 20
153.67029099257709
 11
142.19838084352142
 21
176.67029099257709
  0
LINE
  8
____
 62
     2
  6
continuous
 10
142.59838084352126
 20
153.67029099257709
 11
142.5983808435214
 21
176.67029099257721
  0
LINE
  8
____
 62
     2
  6
continuous
 10
144.69838084352142
 20
176.67029099257709
 11
145.0983808435214
 21
176.67029099257721
  0
LINE
  8
____
 62
     2
  6
continuous
 10
144.69838084352136
 20
153.67029099257709
 11
144.69838084352142
 21
176.67029099257709
  0
LINE
  8
____
 62
     2
  6
continuous
 10
145.09838084352126
 20
153.67029099257709
 11
145.0983808435214
 21
176.67029099257721
  0
LINE
  8
____
 62
     2
  6
continuous
 10
147.19838084352142
 20
176.67029099257709
 11
147.5983808435214
 21
176.67029099257721
  0
LINE
  8
____
 62
     2
  6
continuous
 10
147.19838084352136
 20
153.67029099257709
 11
147.19838084352142
 21
176.67029099257709
  0
LINE
  8
____
 62
     2
  6
continuous
 10
147.59838084352126
 20
153.67029099257709
 11
147.5983808435214
 21
176.67029099257721
  0
LINE
  8
____
 62
     2
  6
continuous
 10
149.69838084352142
 20
176.67029099257709
 11
150.0983808435214
 21
176.67029099257721
  0
LINE
  8
____
 62
     2
  6
continuous
 10
149.69838084352136
 20
153.67029099257709
 11
149.69838084352142
 21
176.67029099257709
  0
LINE
  8
____
 62
     2
  6
continuous
 10
150.09838084352126
 20
153.67029099257709
 11
150.0983808435214
 21
176.67029099257721
  0
LINE
  8
____
 62
     2
  6
continuous
 10
152.19838084352142
 20
176.67029099257709
 11
152.5983808435214
 21
176.67029099257721
  0
LINE
  8
____
 62
     2
  6
continuous
 10
152.19838084352136
 20
153.67029099257709
 11
152.19838084352142
 21
176.67029099257709
  0
LINE
  8
____
 62
     2
  6
continuous
 10
152.59838084352126
 20
153.67029099257709
 11
152.5983808435214
 21
176.67029099257721
  0
LINE
  8
____
 62
     2
  6
continuous
 10
154.69838084352142
 20
176.67029099257709
 11
155.0983808435214
 21
176.67029099257721
  0
LINE
  8
____
 62
     2
  6
continuous
 10
154.69838084352136
 20
153.67029099257709
 11
154.69838084352142
 21
176.67029099257709
  0
LINE
  8
____
 62
     2
  6
continuous
 10
155.09838084352126
 20
153.67029099257709
 11
155.0983808435214
 21
176.67029099257721
  0
LINE
  8
____
 62
     2
  6
continuous
 10
157.19838084352142
 20
176.67029099257709
 11
157.5983808435214
 21
176.67029099257721
  0
LINE
  8
____
 62
     2
  6
continuous
 10
157.19838084352136
 20
153.67029099257709
 11
157.19838084352142
 21
176.67029099257709
  0
LINE
  8
____
 62
     2
  6
continuous
 10
157.59838084352126
 20
153.67029099257709
 11
157.5983808435214
 21
176.67029099257721
  0
LINE
  8
____
 62
     2
  6
continuous
 10
159.69838084352142
 20
176.67029099257709
 11
160.0983808435214
 21
176.67029099257721
  0
LINE
  8
____
 62
     2
  6
continuous
 10
159.69838084352136
 20
153.67029099257709
 11
159.69838084352142
 21
176.67029099257709
  0
LINE
  8
____
 62
     2
  6
continuous
 10
160.09838084352126
 20
153.67029099257709
 11
160.0983808435214
 21
176.67029099257721
  0
LINE
  8
____
 62
     2
  6
continuous
 10
162.19838084352142
 20
176.67029099257709
 11
162.5983808435214
 21
176.67029099257721
  0
LINE
  8
____
 62
     2
  6
continuous
 10
162.19838084352136
 20
153.67029099257709
 11
162.19838084352142
 21
176.67029099257709
  0
LINE
  8
____
 62
     2
  6
continuous
 10
162.59838084352126
 20
153.67029099257709
 11
162.5983808435214
 21
176.67029099257721
  0
LINE
  8
____
 62
     2
  6
continuous
 10
164.69838084352145
 20
176.67029099257709
 11
165.09838084352137
 21
176.67029099257721
  0
LINE
  8
____
 62
     2
  6
continuous
 10
164.69838084352136
 20
153.67029099257709
 11
164.69838084352145
 21
176.67029099257709
  0
LINE
  8
____
 62
     2
  6
continuous
 10
165.09838084352123
 20
153.67029099257709
 11
165.09838084352137
 21
176.67029099257721
  0
LINE
  8
____
 62
     2
  6
continuous
 10
167.19838084352145
 20
176.67029099257709
 11
167.59838084352137
 21
176.67029099257721
  0
LINE
  8
____
 62
     2
  6
continuous
 10
167.19838084352136
 20
153.67029099257709
 11
167.19838084352145
 21
176.67029099257709
  0
LINE
  8
____
 62
     2
  6
continuous
 10
167.59838084352123
 20
153.67029099257709
 11
167.59838084352137
 21
176.67029099257721
  0
LINE
  8
____
 62
     2
  6
continuous
 10
169.69838084352145
 20
176.67029099257709
 11
170.09838084352137
 21
176.67029099257721
  0
LINE
  8
____
 62
     2
  6
continuous
 10
169.69838084352136
 20
153.67029099257709
 11
169.69838084352145
 21
176.67029099257709
  0
LINE
  8
____
 62
     2
  6
continuous
 10
170.09838084352123
 20
153.67029099257709
 11
170.09838084352137
 21
176.67029099257721
  0
LINE
  8
____
 62
     2
  6
continuous
 10
129.69838084352142
 20
176.67029099257709
 11
130.0983808435214
 21
176.67029099257721
  0
LINE
  8
____
 62
     2
  6
continuous
 10
129.69838084352136
 20
153.67029099257709
 11
129.69838084352142
 21
176.67029099257709
  0
LINE
  8
____
 62
     2
  6
continuous
 10
130.09838084352126
 20
153.67029099257709
 11
130.0983808435214
 21
176.67029099257721
  0
LINE
  8
____
 62
     2
  6
continuous
 10
212.19838084352142
 20
176.67029099257709
 11
212.59838084352137
 21
176.67029099257721
  0
LINE
  8
____
 62
     2
  6
continuous
 10
212.19838084352133
 20
153.67029099257709
 11
212.19838084352142
 21
176.67029099257709
  0
LINE
  8
____
 62
     2
  6
continuous
 10
212.59838084352123
 20
153.67029099257709
 11
212.59838084352137
 21
176.67029099257721
  0
LINE
  8
____
 62
     2
  6
continuous
 10
214.69838084352142
 20
176.67029099257709
 11
215.09838084352137
 21
176.67029099257721
  0
LINE
  8
____
 62
     2
  6
continuous
 10
214.69838084352133
 20
153.67029099257709
 11
214.69838084352142
 21
176.67029099257709
  0
LINE
  8
____
 62
     2
  6
continuous
 10
215.09838084352123
 20
153.67029099257709
 11
215.09838084352137
 21
176.67029099257721
  0
LINE
  8
____
 62
     2
  6
continuous
 10
217.19838084352142
 20
176.67029099257709
 11
217.59838084352137
 21
176.67029099257721
  0
LINE
  8
____
 62
     2
  6
continuous
 10
217.19838084352133
 20
153.67029099257709
 11
217.19838084352142
 21
176.67029099257709
  0
LINE
  8
____
 62
     2
  6
continuous
 10
217.59838084352123
 20
153.67029099257709
 11
217.59838084352137
 21
176.67029099257721
  0
LINE
  8
____
 62
     4
  6
continuous
 10
121.37625456577041
 20
176.67029099258033
 11
128.69838084352156
 21
176.67029099258033
  0
LINE
  8
____
 62
     4
  6
continuous
 10
121.37625456577041
 20
152.67029099257709
 11
126.37625456577044
 21
152.67029099257709
  0
LINE
  8
____
 62
     7
  6
continuous
 10
260.32362567681275
 20
176.67029099257707
 11
260.32362567681275
 21
171.55029099257706
  0
LINE
  8
____
 62
     7
  6
continuous
 10
260.32362567681275
 20
171.55029099257706
 11
261.32362567681275
 21
171.55029099257706
  0
LINE
  8
____
 62
     7
  6
continuous
 10
259.32362567681275
 20
158.55029099257706
 11
260.32362567681275
 21
158.55029099257706
  0
LINE
  8
____
 62
     7
  6
continuous
 10
261.32362567681275
 20
171.55029099257706
 11
259.32362567681275
 21
158.55029099257706
  0
LINE
  8
____
 62
     7
  6
continuous
 10
260.32362567681275
 20
158.55029099257706
 11
260.32362567681275
 21
150.67029099257704
  0
LINE
  8
____
 62
     7
  6
continuous
 10
127.37625456577044
 20
152.67029099257709
 11
260.32362567681275
 21
152.67029099257704
  0
LINE
  8
____
 62
     2
  6
continuous
 10
219.69838084352133
 20
153.67029099257709
 11
220.09838084352123
 21
153.67029099257709
  0
LINE
  8
____
 62
     2
  6
continuous
 10
219.69838084352142
 20
176.67029099257709
 11
220.09838084352137
 21
176.67029099257721
  0
LINE
  8
____
 62
     2
  6
continuous
 10
219.69838084352133
 20
153.67029099257709
 11
219.69838084352142
 21
176.67029099257709
  0
LINE
  8
____
 62
     2
  6
continuous
 10
220.09838084352123
 20
153.67029099257709
 11
220.09838084352137
 21
176.67029099257721
  0
LINE
  8
____
 62
     2
  6
continuous
 10
222.19838084352133
 20
153.67029099257709
 11
222.59838084352123
 21
153.67029099257709
  0
LINE
  8
____
 62
     2
  6
continuous
 10
222.19838084352142
 20
176.67029099257709
 11
222.59838084352137
 21
176.67029099257721
  0
LINE
  8
____
 62
     2
  6
continuous
 10
222.19838084352133
 20
153.67029099257709
 11
222.19838084352142
 21
176.67029099257709
  0
LINE
  8
____
 62
     2
  6
continuous
 10
222.59838084352123
 20
153.67029099257709
 11
222.59838084352137
 21
176.67029099257721
  0
LINE
  8
____
 62
     2
  6
continuous
 10
224.69838084352133
 20
153.67029099257709
 11
225.09838084352123
 21
153.67029099257709
  0
LINE
  8
____
 62
     2
  6
continuous
 10
224.69838084352142
 20
176.67029099257709
 11
225.09838084352137
 21
176.67029099257721
  0
LINE
  8
____
 62
     2
  6
continuous
 10
224.69838084352133
 20
153.67029099257709
 11
224.69838084352142
 21
176.67029099257709
  0
LINE
  8
____
 62
     2
  6
continuous
 10
225.09838084352123
 20
153.67029099257709
 11
225.09838084352137
 21
176.67029099257721
  0
LINE
  8
____
 62
     2
  6
continuous
 10
227.19838084352133
 20
153.67029099257709
 11
227.59838084352123
 21
153.67029099257709
  0
LINE
  8
____
 62
     2
  6
continuous
 10
227.19838084352142
 20
176.67029099257709
 11
227.59838084352137
 21
176.67029099257721
  0
LINE
  8
____
 62
     2
  6
continuous
 10
227.19838084352133
 20
153.67029099257709
 11
227.19838084352142
 21
176.67029099257709
  0
LINE
  8
____
 62
     2
  6
continuous
 10
227.59838084352123
 20
153.67029099257709
 11
227.59838084352137
 21
176.67029099257721
  0
LINE
  8
____
 62
     2
  6
continuous
 10
229.69838084352133
 20
153.67029099257709
 11
230.09838084352123
 21
153.67029099257709
  0
LINE
  8
____
 62
     2
  6
continuous
 10
229.69838084352142
 20
176.67029099257709
 11
230.09838084352137
 21
176.67029099257721
  0
LINE
  8
____
 62
     2
  6
continuous
 10
229.69838084352133
 20
153.67029099257709
 11
229.69838084352142
 21
176.67029099257709
  0
LINE
  8
____
 62
     2
  6
continuous
 10
230.09838084352123
 20
153.67029099257709
 11
230.09838084352137
 21
176.67029099257721
  0
LINE
  8
____
 62
     2
  6
continuous
 10
232.19838084352133
 20
153.67029099257709
 11
232.59838084352123
 21
153.67029099257709
  0
LINE
  8
____
 62
     2
  6
continuous
 10
232.19838084352142
 20
176.67029099257709
 11
232.59838084352137
 21
176.67029099257721
  0
LINE
  8
____
 62
     2
  6
continuous
 10
232.19838084352133
 20
153.67029099257709
 11
232.19838084352142
 21
176.67029099257709
  0
LINE
  8
____
 62
     2
  6
continuous
 10
232.59838084352123
 20
153.67029099257709
 11
232.59838084352137
 21
176.67029099257721
  0
LINE
  8
____
 62
     2
  6
continuous
 10
234.69838084352133
 20
153.67029099257709
 11
235.09838084352123
 21
153.67029099257709
  0
LINE
  8
____
 62
     2
  6
continuous
 10
234.69838084352142
 20
176.67029099257709
 11
235.09838084352137
 21
176.67029099257721
  0
LINE
  8
____
 62
     2
  6
continuous
 10
234.69838084352133
 20
153.67029099257709
 11
234.69838084352142
 21
176.67029099257709
  0
LINE
  8
____
 62
     2
  6
continuous
 10
235.09838084352123
 20
153.67029099257709
 11
235.09838084352137
 21
176.67029099257721
  0
LINE
  8
____
 62
     2
  6
continuous
 10
237.19838084352131
 20
153.67029099257709
 11
237.5983808435212
 21
153.67029099257709
  0
LINE
  8
____
 62
     2
  6
continuous
 10
237.19838084352136
 20
176.67029099257709
 11
237.59838084352134
 21
176.67029099257721
  0
LINE
  8
____
 62
     2
  6
continuous
 10
237.19838084352131
 20
153.67029099257709
 11
237.19838084352136
 21
176.67029099257709
  0
LINE
  8
____
 62
     2
  6
continuous
 10
237.5983808435212
 20
153.67029099257709
 11
237.59838084352134
 21
176.67029099257721
  0
LINE
  8
____
 62
     2
  6
continuous
 10
239.69838084352131
 20
153.67029099257709
 11
240.0983808435212
 21
153.67029099257709
  0
LINE
  8
____
 62
     2
  6
continuous
 10
239.69838084352136
 20
176.67029099257709
 11
240.09838084352134
 21
176.67029099257721
  0
LINE
  8
____
 62
     2
  6
continuous
 10
239.69838084352131
 20
153.67029099257709
 11
239.69838084352136
 21
176.67029099257709
  0
LINE
  8
____
 62
     2
  6
continuous
 10
240.0983808435212
 20
153.67029099257709
 11
240.09838084352134
 21
176.67029099257721
  0
LINE
  8
____
 62
     2
  6
continuous
 10
242.19838084352131
 20
153.67029099257709
 11
242.5983808435212
 21
153.67029099257709
  0
LINE
  8
____
 62
     2
  6
continuous
 10
242.19838084352136
 20
176.67029099257709
 11
242.59838084352134
 21
176.67029099257721
  0
LINE
  8
____
 62
     2
  6
continuous
 10
242.19838084352131
 20
153.67029099257709
 11
242.19838084352136
 21
176.67029099257709
  0
LINE
  8
____
 62
     2
  6
continuous
 10
242.5983808435212
 20
153.67029099257709
 11
242.59838084352134
 21
176.67029099257721
  0
LINE
  8
____
 62
     2
  6
continuous
 10
244.69838084352131
 20
153.67029099257709
 11
245.0983808435212
 21
153.67029099257709
  0
LINE
  8
____
 62
     2
  6
continuous
 10
244.69838084352136
 20
176.67029099257709
 11
245.09838084352134
 21
176.67029099257721
  0
LINE
  8
____
 62
     2
  6
continuous
 10
244.69838084352131
 20
153.67029099257709
 11
244.69838084352136
 21
176.67029099257709
  0
LINE
  8
____
 62
     2
  6
continuous
 10
245.0983808435212
 20
153.67029099257709
 11
245.09838084352134
 21
176.67029099257721
  0
LINE
  8
____
 62
     2
  6
continuous
 10
247.19838084352131
 20
153.67029099257709
 11
247.5983808435212
 21
153.67029099257709
  0
LINE
  8
____
 62
     2
  6
continuous
 10
247.19838084352139
 20
176.67029099257709
 11
247.59838084352134
 21
176.67029099257721
  0
LINE
  8
____
 62
     2
  6
continuous
 10
247.19838084352131
 20
153.67029099257709
 11
247.19838084352139
 21
176.67029099257709
  0
LINE
  8
____
 62
     2
  6
continuous
 10
247.5983808435212
 20
153.67029099257709
 11
247.59838084352134
 21
176.67029099257721
  0
LINE
  8
____
 62
     2
  6
continuous
 10
249.69838084352131
 20
153.67029099257709
 11
250.0983808435212
 21
153.67029099257709
  0
LINE
  8
____
 62
     2
  6
continuous
 10
249.69838084352139
 20
176.67029099257709
 11
250.09838084352134
 21
176.67029099257721
  0
LINE
  8
____
 62
     2
  6
continuous
 10
249.69838084352131
 20
153.67029099257709
 11
249.69838084352139
 21
176.67029099257709
  0
LINE
  8
____
 62
     2
  6
continuous
 10
250.0983808435212
 20
153.67029099257709
 11
250.09838084352134
 21
176.67029099257721
  0
LINE
  8
____
 62
     2
  6
continuous
 10
252.19838084352131
 20
153.67029099257709
 11
252.5983808435212
 21
153.67029099257709
  0
LINE
  8
____
 62
     2
  6
continuous
 10
252.19838084352139
 20
176.67029099257709
 11
252.59838084352134
 21
176.67029099257721
  0
LINE
  8
____
 62
     2
  6
continuous
 10
252.19838084352131
 20
153.67029099257709
 11
252.19838084352139
 21
176.67029099257709
  0
LINE
  8
____
 62
     2
  6
continuous
 10
252.5983808435212
 20
153.67029099257709
 11
252.59838084352134
 21
176.67029099257721
  0
LINE
  8
____
 62
     2
  6
continuous
 10
254.69838084352131
 20
153.67029099257709
 11
255.0983808435212
 21
153.67029099257709
  0
LINE
  8
____
 62
     2
  6
continuous
 10
254.69838084352139
 20
176.67029099257709
 11
255.09838084352134
 21
176.67029099257721
  0
LINE
  8
____
 62
     2
  6
continuous
 10
254.69838084352131
 20
153.67029099257709
 11
254.69838084352139
 21
176.67029099257709
  0
LINE
  8
____
 62
     2
  6
continuous
 10
255.0983808435212
 20
153.67029099257709
 11
255.09838084352134
 21
176.67029099257721
  0
LINE
  8
____
 62
     2
  6
continuous
 10
257.19838084352131
 20
153.67029099257709
 11
257.59838084352117
 21
153.67029099257709
  0
LINE
  8
____
 62
     2
  6
continuous
 10
257.19838084352136
 20
176.67029099257709
 11
257.59838084352134
 21
176.67029099257721
  0
LINE
  8
____
 62
     2
  6
continuous
 10
257.19838084352131
 20
153.67029099257709
 11
257.19838084352136
 21
176.67029099257709
  0
LINE
  8
____
 62
     2
  6
continuous
 10
257.59838084352117
 20
153.67029099257709
 11
257.59838084352134
 21
176.67029099257721
  0
LINE
  8
____
 62
     6
  6
continuous
 10
250.64838084352144
 20
175.07029099257699
 11
251.64838084352129
 21
175.07029099257699
  0
LINE
  8
____
 62
     6
  6
continuous
 10
251.64838084352138
 20
152.67029099257707
 11
251.64838084352124
 21
155.67029099257704
  0
LINE
  8
____
 62
     6
  6
continuous
 10
250.64838084352138
 20
152.67029099257707
 11
250.64838084352135
 21
155.67029099257704
  0
LINE
  8
____
 62
     6
  6
continuous
 10
251.64838084352124
 20
156.87029099257703
 11
251.64838084352161
 21
173.47029099257702
  0
LINE
  8
____
 62
     6
  6
continuous
 10
251.64838084352161
 20
174.67029099257701
 11
251.64838084352129
 21
175.07029099257699
  0
LINE
  8
____
 62
     6
  6
continuous
 10
250.64838084352135
 20
156.87029099257703
 11
250.64838084352121
 21
173.47029099257702
  0
LINE
  8
____
 62
     6
  6
continuous
 10
250.64838084352115
 20
174.67029099257701
 11
250.64838084352144
 21
175.07029099257699
  0
LINE
  8
____
 62
     2
  6
continuous
 10
251.19838084352205
 20
174.67029099257701
 11
251.19838084352205
 21
173.47029099257702
  0
LINE
  8
____
 62
     2
  6
continuous
 10
251.09838084352202
 20
174.67029099257701
 11
251.09838084352202
 21
173.47029099257702
  0
LINE
  8
____
 62
     2
  6
continuous
 10
251.19838084352313
 20
156.87029099257708
 11
251.19838084352313
 21
155.67029099257707
  0
LINE
  8
____
 62
     2
  6
continuous
 10
251.09838084352313
 20
156.87029099257708
 11
251.09838084352313
 21
155.67029099257707
  0
LINE
  8
____
 62
     7
  6
line_font22
 10
251.14838084352129
 20
151.42471675380941
 11
251.14838084352152
 21
175.86156707366362
  0
LINE
  8
____
 62
     4
  6
continuous
 10
131.14838084352135
 20
176.86156707366391
 11
131.14838084352135
 21
182.67442520524247
  0
LINE
  8
____
 62
     4
  6
continuous
 10
171.14838084352144
 20
176.86156707366376
 11
171.14838084352144
 21
187.67442520524247
  0
LINE
  8
____
 62
     4
  6
continuous
 10
129.1483808435211
 20
175.67029099257707
 11
129.1483808435211
 21
187.67442520524247
  0
LINE
  8
____
 62
     4
  6
continuous
 10
211.14838084352152
 20
176.86156707366362
 11
211.14838084352124
 21
187.67442520524247
  0
LINE
  8
____
 62
     4
  6
continuous
 10
251.14838084352152
 20
176.86156707366362
 11
251.14838084352152
 21
187.67442520524241
  0
LINE
  8
____
 62
     4
  6
continuous
 10
212.39838084352138
 20
177.67029099257715
 11
212.39838084352138
 21
182.67442520524241
  0
LINE
  8
____
 62
     4
  6
continuous
 10
249.89838084352138
 20
177.67029099257715
 11
249.89838084352138
 21
182.67442520524241
  0
LINE
  8
____
 62
     3
  6
continuous
 10
129.14838084352135
 20
173.47029099257711
 11
129.69838084352153
 21
173.47029099257711
  0
LINE
  8
____
 62
     3
  6
continuous
 10
129.1483808435211
 20
174.67029099257707
 11
129.69838084352153
 21
174.67029099257709
  0
LINE
  8
____
 62
     3
  6
continuous
 10
129.14838084352129
 20
156.87029099257711
 11
129.69838084352148
 21
156.87029099257711
  0
LINE
  8
____
 62
     3
  6
continuous
 10
129.14838084352101
 20
155.67029099257707
 11
129.69838084352151
 21
155.67029099257709
  0
LINE
  8
____
 62
     3
  6
continuous
 10
130.09838084352143
 20
173.47029099257713
 11
132.19838084352136
 21
173.47029099257713
  0
LINE
  8
____
 62
     3
  6
continuous
 10
130.09838084352143
 20
174.67029099257709
 11
132.19838084352136
 21
174.67029099257709
  0
LINE
  8
____
 62
     3
  6
continuous
 10
130.09838084352131
 20
156.87029099257717
 11
132.19838084352133
 21
156.87029099257717
  0
LINE
  8
____
 62
     3
  6
continuous
 10
130.09838084352131
 20
155.67029099257709
 11
132.19838084352133
 21
155.67029099257709
  0
LINE
  8
____
 62
     3
  6
continuous
 10
132.5983808435214
 20
173.47029099257719
 11
134.69838084352156
 21
173.47029099257722
  0
LINE
  8
____
 62
     3
  6
continuous
 10
132.59838084352143
 20
174.67029099257709
 11
134.69838084352153
 21
174.67029099257707
  0
LINE
  8
____
 62
     3
  6
continuous
 10
132.59838084352131
 20
156.8702909925772
 11
134.69838084352151
 21
156.87029099257717
  0
LINE
  8
____
 62
     3
  6
continuous
 10
132.59838084352128
 20
155.67029099257712
 11
134.69838084352151
 21
155.67029099257715
  0
LINE
  8
____
 62
     3
  6
continuous
 10
135.0983808435214
 20
173.47029099257722
 11
137.19838084352139
 21
173.47029099257722
  0
LINE
  8
____
 62
     3
  6
continuous
 10
135.0983808435214
 20
174.67029099257707
 11
137.19838084352139
 21
174.67029099257704
  0
LINE
  8
____
 62
     3
  6
continuous
 10
135.09838084352131
 20
156.8702909925772
 11
137.19838084352133
 21
156.8702909925772
  0
LINE
  8
____
 62
     3
  6
continuous
 10
135.09838084352131
 20
155.67029099257715
 11
137.19838084352133
 21
155.67029099257715
  0
LINE
  8
____
 62
     3
  6
continuous
 10
137.59838084352137
 20
173.47029099257722
 11
139.69838084352153
 21
173.47029099257722
  0
LINE
  8
____
 62
     3
  6
continuous
 10
137.59838084352137
 20
174.67029099257704
 11
139.69838084352153
 21
174.67029099257701
  0
LINE
  8
____
 62
     3
  6
continuous
 10
137.59838084352128
 20
156.8702909925772
 11
139.69838084352151
 21
156.87029099257722
  0
LINE
  8
____
 62
     3
  6
continuous
 10
137.59838084352128
 20
155.67029099257715
 11
139.69838084352151
 21
155.67029099257718
  0
LINE
  8
____
 62
     3
  6
continuous
 10
140.09838084352137
 20
173.47029099257722
 11
142.19838084352136
 21
173.47029099257725
  0
LINE
  8
____
 62
     3
  6
continuous
 10
140.09838084352137
 20
174.67029099257701
 11
142.19838084352139
 21
174.67029099257701
  0
LINE
  8
____
 62
     3
  6
continuous
 10
140.09838084352126
 20
156.87029099257722
 11
142.19838084352136
 21
156.87029099257722
  0
LINE
  8
____
 62
     3
  6
continuous
 10
140.09838084352126
 20
155.67029099257715
 11
142.19838084352136
 21
155.67029099257718
  0
LINE
  8
____
 62
     3
  6
continuous
 10
142.59838084352134
 20
173.47029099257722
 11
144.69838084352139
 21
173.47029099257725
  0
LINE
  8
____
 62
     3
  6
continuous
 10
142.59838084352137
 20
174.67029099257701
 11
144.69838084352136
 21
174.67029099257701
  0
LINE
  8
____
 62
     3
  6
continuous
 10
142.59838084352126
 20
156.87029099257722
 11
144.69838084352136
 21
156.87029099257722
  0
LINE
  8
____
 62
     3
  6
continuous
 10
142.59838084352126
 20
155.67029099257721
 11
144.69838084352136
 21
155.67029099257724
  0
LINE
  8
____
 62
     3
  6
continuous
 10
145.09838084352137
 20
173.47029099257728
 11
147.19838084352139
 21
173.47029099257728
  0
LINE
  8
____
 62
     3
  6
continuous
 10
145.09838084352137
 20
174.67029099257701
 11
147.19838084352139
 21
174.67029099257701
  0
LINE
  8
____
 62
     3
  6
continuous
 10
145.09838084352123
 20
156.87029099257725
 11
147.19838084352136
 21
156.87029099257728
  0
LINE
  8
____
 62
     3
  6
continuous
 10
145.09838084352123
 20
155.67029099257724
 11
147.19838084352136
 21
155.67029099257724
  0
LINE
  8
____
 62
     3
  6
continuous
 10
147.59838084352134
 20
173.47029099257728
 11
149.69838084352136
 21
173.47029099257728
  0
LINE
  8
____
 62
     3
  6
continuous
 10
147.59838084352134
 20
174.67029099257704
 11
149.69838084352139
 21
174.67029099257704
  0
LINE
  8
____
 62
     3
  6
continuous
 10
147.59838084352123
 20
156.87029099257725
 11
149.69838084352133
 21
156.87029099257725
  0
LINE
  8
____
 62
     3
  6
continuous
 10
147.59838084352123
 20
155.67029099257724
 11
149.69838084352133
 21
155.67029099257724
  0
LINE
  8
____
 62
     3
  6
continuous
 10
150.09838084352134
 20
173.47029099257728
 11
152.19838084352139
 21
173.47029099257728
  0
LINE
  8
____
 62
     3
  6
continuous
 10
150.09838084352131
 20
174.67029099257704
 11
152.19838084352139
 21
174.67029099257701
  0
LINE
  8
____
 62
     3
  6
continuous
 10
150.0983808435212
 20
156.87029099257725
 11
152.19838084352136
 21
156.87029099257728
  0
LINE
  8
____
 62
     3
  6
continuous
 10
150.0983808435212
 20
155.67029099257726
 11
152.19838084352136
 21
155.67029099257726
  0
LINE
  8
____
 62
     3
  6
continuous
 10
152.59838084352145
 20
173.47029099257728
 11
154.69838084352139
 21
173.47029099257728
  0
LINE
  8
____
 62
     3
  6
continuous
 10
152.59838084352148
 20
174.67029099257704
 11
154.69838084352136
 21
174.67029099257701
  0
LINE
  8
____
 62
     3
  6
continuous
 10
152.59838084352137
 20
156.87029099257728
 11
154.69838084352133
 21
156.87029099257728
  0
LINE
  8
____
 62
     3
  6
continuous
 10
152.59838084352137
 20
155.67029099257726
 11
154.69838084352131
 21
155.67029099257726
  0
LINE
  8
____
 62
     3
  6
continuous
 10
155.09838084352131
 20
173.47029099257728
 11
157.19838084352139
 21
173.47029099257728
  0
LINE
  8
____
 62
     3
  6
continuous
 10
155.09838084352131
 20
174.67029099257701
 11
157.19838084352139
 21
174.67029099257701
  0
LINE
  8
____
 62
     3
  6
continuous
 10
155.0983808435212
 20
156.87029099257728
 11
157.19838084352136
 21
156.87029099257731
  0
LINE
  8
____
 62
     3
  6
continuous
 10
155.0983808435212
 20
155.67029099257726
 11
157.19838084352136
 21
155.67029099257729
  0
LINE
  8
____
 62
     3
  6
continuous
 10
157.59838084352143
 20
173.47029099257728
 11
159.69838084352136
 21
173.47029099257728
  0
LINE
  8
____
 62
     3
  6
continuous
 10
157.59838084352145
 20
174.67029099257701
 11
159.69838084352142
 21
174.67029099257701
  0
LINE
  8
____
 62
     3
  6
continuous
 10
157.59838084352131
 20
156.87029099257728
 11
159.69838084352133
 21
156.87029099257728
  0
LINE
  8
____
 62
     3
  6
continuous
 10
157.59838084352131
 20
155.67029099257726
 11
159.69838084352133
 21
155.67029099257726
  0
LINE
  8
____
 62
     3
  6
continuous
 10
160.09838084352131
 20
173.47029099257728
 11
162.19838084352142
 21
173.47029099257728
  0
LINE
  8
____
 62
     3
  6
continuous
 10
160.09838084352128
 20
174.67029099257701
 11
162.19838084352139
 21
174.67029099257701
  0
LINE
  8
____
 62
     3
  6
continuous
 10
160.09838084352117
 20
156.87029099257728
 11
162.19838084352133
 21
156.87029099257728
  0
LINE
  8
____
 62
     3
  6
continuous
 10
160.09838084352117
 20
155.67029099257729
 11
162.19838084352133
 21
155.67029099257726
  0
LINE
  8
____
 62
     3
  6
continuous
 10
162.59838084352143
 20
173.47029099257728
 11
164.69838084352142
 21
173.47029099257725
  0
LINE
  8
____
 62
     3
  6
continuous
 10
162.59838084352143
 20
174.67029099257701
 11
164.69838084352142
 21
174.67029099257701
  0
LINE
  8
____
 62
     3
  6
continuous
 10
162.59838084352131
 20
156.87029099257728
 11
164.69838084352136
 21
156.87029099257728
  0
LINE
  8
____
 62
     3
  6
continuous
 10
162.59838084352131
 20
155.67029099257729
 11
164.69838084352136
 21
155.67029099257729
  0
LINE
  8
____
 62
     3
  6
continuous
 10
165.09838084352123
 20
173.47029099257728
 11
167.19838084352142
 21
173.47029099257728
  0
LINE
  8
____
 62
     3
  6
continuous
 10
165.09838084352126
 20
174.67029099257701
 11
167.19838084352145
 21
174.67029099257701
  0
LINE
  8
____
 62
     3
  6
continuous
 10
165.09838084352111
 20
156.87029099257731
 11
167.19838084352136
 21
156.87029099257731
  0
LINE
  8
____
 62
     3
  6
continuous
 10
165.09838084352111
 20
155.67029099257729
 11
167.19838084352136
 21
155.67029099257732
  0
LINE
  8
____
 62
     3
  6
continuous
 10
167.59838084352137
 20
173.47029099257728
 11
169.69838084352142
 21
173.47029099257728
  0
LINE
  8
____
 62
     3
  6
continuous
 10
167.59838084352143
 20
174.67029099257701
 11
169.69838084352145
 21
174.67029099257701
  0
LINE
  8
____
 62
     3
  6
continuous
 10
167.59838084352126
 20
156.87029099257734
 11
169.69838084352136
 21
156.87029099257737
  0
LINE
  8
____
 62
     3
  6
continuous
 10
167.59838084352126
 20
155.67029099257735
 11
169.69838084352136
 21
155.67029099257738
  0
LINE
  8
____
 62
     3
  6
continuous
 10
170.0983808435212
 20
173.47029099257728
 11
172.19838084352145
 21
173.47029099257728
  0
LINE
  8
____
 62
     3
  6
continuous
 10
170.09838084352126
 20
174.67029099257701
 11
172.19838084352145
 21
174.67029099257704
  0
LINE
  8
____
 62
     3
  6
continuous
 10
170.09838084352111
 20
156.87029099257734
 11
172.19838084352136
 21
156.87029099257737
  0
LINE
  8
____
 62
     3
  6
continuous
 10
170.09838084352108
 20
155.67029099257735
 11
172.19838084352136
 21
155.67029099257738
  0
LINE
  8
____
 62
     3
  6
continuous
 10
172.59838084352134
 20
173.47029099257728
 11
174.69838084352145
 21
173.47029099257728
  0
LINE
  8
____
 62
     3
  6
continuous
 10
172.59838084352137
 20
174.67029099257701
 11
174.69838084352145
 21
174.67029099257704
  0
LINE
  8
____
 62
     3
  6
continuous
 10
172.59838084352126
 20
156.8702909925774
 11
174.69838084352136
 21
156.87029099257737
  0
LINE
  8
____
 62
     3
  6
continuous
 10
172.59838084352123
 20
155.67029099257735
 11
174.69838084352136
 21
155.67029099257732
  0
LINE
  8
____
 62
     3
  6
continuous
 10
175.09838084352137
 20
173.47029099257728
 11
177.19838084352145
 21
173.47029099257728
  0
LINE
  8
____
 62
     3
  6
continuous
 10
175.09838084352137
 20
174.67029099257704
 11
177.19838084352148
 21
174.67029099257704
  0
LINE
  8
____
 62
     3
  6
continuous
 10
175.09838084352126
 20
156.87029099257737
 11
177.19838084352136
 21
156.8702909925774
  0
LINE
  8
____
 62
     3
  6
continuous
 10
175.09838084352123
 20
155.67029099257732
 11
177.19838084352136
 21
155.67029099257732
  0
LINE
  8
____
 62
     3
  6
continuous
 10
177.59838084352134
 20
173.47029099257728
 11
179.69838084352145
 21
173.47029099257728
  0
LINE
  8
____
 62
     3
  6
continuous
 10
177.59838084352134
 20
174.67029099257701
 11
179.69838084352145
 21
174.67029099257701
  0
LINE
  8
____
 62
     3
  6
continuous
 10
177.59838084352126
 20
156.8702909925774
 11
179.69838084352136
 21
156.8702909925774
  0
LINE
  8
____
 62
     3
  6
continuous
 10
177.59838084352123
 20
155.67029099257735
 11
179.69838084352136
 21
155.67029099257732
  0
LINE
  8
____
 62
     3
  6
continuous
 10
180.09838084352131
 20
173.47029099257728
 11
182.19838084352142
 21
173.47029099257728
  0
LINE
  8
____
 62
     3
  6
continuous
 10
180.09838084352131
 20
174.67029099257701
 11
182.19838084352145
 21
174.67029099257701
  0
LINE
  8
____
 62
     3
  6
continuous
 10
180.09838084352123
 20
156.87029099257742
 11
182.19838084352133
 21
156.87029099257742
  0
LINE
  8
____
 62
     3
  6
continuous
 10
180.0983808435212
 20
155.67029099257738
 11
182.19838084352133
 21
155.67029099257735
  0
LINE
  8
____
 62
     3
  6
continuous
 10
182.59838084352131
 20
173.47029099257728
 11
184.69838084352145
 21
173.47029099257728
  0
LINE
  8
____
 62
     3
  6
continuous
 10
182.59838084352131
 20
174.67029099257701
 11
184.69838084352148
 21
174.67029099257701
  0
LINE
  8
____
 62
     3
  6
continuous
 10
182.5983808435212
 20
156.87029099257742
 11
184.69838084352136
 21
156.8702909925774
  0
LINE
  8
____
 62
     3
  6
continuous
 10
182.59838084352117
 20
155.67029099257738
 11
184.69838084352136
 21
155.67029099257741
  0
LINE
  8
____
 62
     3
  6
continuous
 10
185.09838084352126
 20
173.47029099257728
 11
187.19838084352142
 21
173.47029099257728
  0
LINE
  8
____
 62
     3
  6
continuous
 10
185.09838084352131
 20
174.67029099257701
 11
187.19838084352145
 21
174.67029099257701
  0
LINE
  8
____
 62
     3
  6
continuous
 10
185.0983808435212
 20
156.87029099257742
 11
187.19838084352136
 21
156.87029099257745
  0
LINE
  8
____
 62
     3
  6
continuous
 10
185.09838084352123
 20
155.67029099257741
 11
187.19838084352136
 21
155.67029099257743
  0
LINE
  8
____
 62
     3
  6
continuous
 10
187.59838084352145
 20
173.47029099257728
 11
189.69838084352145
 21
173.47029099257733
  0
LINE
  8
____
 62
     3
  6
continuous
 10
187.59838084352145
 20
174.67029099257701
 11
189.69838084352145
 21
174.67029099257701
  0
LINE
  8
____
 62
     3
  6
continuous
 10
187.59838084352137
 20
156.87029099257745
 11
189.69838084352142
 21
156.87029099257745
  0
LINE
  8
____
 62
     3
  6
continuous
 10
187.59838084352137
 20
155.67029099257743
 11
189.69838084352142
 21
155.67029099257743
  0
LINE
  8
____
 62
     3
  6
continuous
 10
190.09838084352145
 20
173.47029099257728
 11
192.19838084352162
 21
173.47029099257733
  0
LINE
  8
____
 62
     3
  6
continuous
 10
190.09838084352145
 20
174.67029099257701
 11
192.19838084352162
 21
174.67029099257701
  0
LINE
  8
____
 62
     3
  6
continuous
 10
190.09838084352134
 20
156.87029099257742
 11
192.19838084352153
 21
156.87029099257745
  0
LINE
  8
____
 62
     3
  6
continuous
 10
190.09838084352134
 20
155.67029099257741
 11
192.19838084352153
 21
155.67029099257741
  0
LINE
  8
____
 62
     3
  6
continuous
 10
192.59838084352126
 20
173.47029099257733
 11
194.69838084352128
 21
173.47029099257739
  0
LINE
  8
____
 62
     3
  6
continuous
 10
192.59838084352126
 20
174.67029099257701
 11
194.69838084352128
 21
174.67029099257701
  0
LINE
  8
____
 62
     3
  6
continuous
 10
192.5983808435212
 20
156.87029099257745
 11
194.69838084352122
 21
156.87029099257748
  0
LINE
  8
____
 62
     3
  6
continuous
 10
192.5983808435212
 20
155.67029099257743
 11
194.69838084352119
 21
155.67029099257738
  0
LINE
  8
____
 62
     3
  6
continuous
 10
195.09838084352126
 20
173.47029099257739
 11
197.19838084352142
 21
173.47029099257739
  0
LINE
  8
____
 62
     3
  6
continuous
 10
195.09838084352126
 20
174.67029099257701
 11
197.19838084352145
 21
174.67029099257701
  0
LINE
  8
____
 62
     3
  6
continuous
 10
195.09838084352117
 20
156.87029099257751
 11
197.19838084352136
 21
156.87029099257748
  0
LINE
  8
____
 62
     3
  6
continuous
 10
195.09838084352117
 20
155.67029099257743
 11
197.19838084352136
 21
155.67029099257741
  0
LINE
  8
____
 62
     3
  6
continuous
 10
197.59838084352143
 20
173.47029099257745
 11
199.69838084352145
 21
173.47029099257745
  0
LINE
  8
____
 62
     3
  6
continuous
 10
197.59838084352143
 20
174.67029099257701
 11
199.69838084352145
 21
174.67029099257695
  0
LINE
  8
____
 62
     3
  6
continuous
 10
197.59838084352131
 20
156.87029099257748
 11
199.69838084352136
 21
156.87029099257751
  0
LINE
  8
____
 62
     3
  6
continuous
 10
197.59838084352131
 20
155.67029099257741
 11
199.69838084352136
 21
155.67029099257743
  0
LINE
  8
____
 62
     3
  6
continuous
 10
200.09838084352143
 20
173.47029099257745
 11
202.19838084352159
 21
173.47029099257745
  0
LINE
  8
____
 62
     3
  6
continuous
 10
200.09838084352143
 20
174.67029099257701
 11
202.19838084352159
 21
174.67029099257692
  0
LINE
  8
____
 62
     3
  6
continuous
 10
200.09838084352126
 20
156.87029099257751
 11
202.19838084352153
 21
156.87029099257751
  0
LINE
  8
____
 62
     3
  6
continuous
 10
200.09838084352126
 20
155.67029099257743
 11
202.19838084352153
 21
155.67029099257746
  0
LINE
  8
____
 62
     3
  6
continuous
 10
202.59838084352157
 20
173.47029099257745
 11
204.69838084352128
 21
173.47029099257745
  0
LINE
  8
____
 62
     3
  6
continuous
 10
202.59838084352157
 20
174.67029099257692
 11
204.69838084352131
 21
174.67029099257684
  0
LINE
  8
____
 62
     3
  6
continuous
 10
202.59838084352143
 20
156.87029099257751
 11
204.69838084352119
 21
156.87029099257751
  0
LINE
  8
____
 62
     3
  6
continuous
 10
202.59838084352143
 20
155.67029099257746
 11
204.69838084352119
 21
155.67029099257746
  0
LINE
  8
____
 62
     3
  6
continuous
 10
205.0983808435212
 20
173.47029099257739
 11
207.19838084352131
 21
173.47029099257736
  0
LINE
  8
____
 62
     3
  6
continuous
 10
205.09838084352123
 20
174.67029099257689
 11
207.19838084352128
 21
174.67029099257692
  0
LINE
  8
____
 62
     3
  6
continuous
 10
205.09838084352111
 20
156.87029099257751
 11
207.19838084352128
 21
156.87029099257754
  0
LINE
  8
____
 62
     3
  6
continuous
 10
205.09838084352111
 20
155.67029099257749
 11
207.19838084352128
 21
155.67029099257752
  0
LINE
  8
____
 62
     3
  6
continuous
 10
207.59838084352131
 20
173.47029099257733
 11
209.69838084352142
 21
173.47029099257733
  0
LINE
  8
____
 62
     3
  6
continuous
 10
207.59838084352137
 20
174.67029099257695
 11
209.69838084352148
 21
174.67029099257701
  0
LINE
  8
____
 62
     3
  6
continuous
 10
207.59838084352126
 20
156.87029099257751
 11
209.69838084352136
 21
156.87029099257751
  0
LINE
  8
____
 62
     3
  6
continuous
 10
207.59838084352126
 20
155.67029099257749
 11
209.69838084352136
 21
155.67029099257746
  0
LINE
  8
____
 62
     3
  6
continuous
 10
210.09838084352134
 20
173.47029099257736
 11
212.19838084352145
 21
173.47029099257745
  0
LINE
  8
____
 62
     3
  6
continuous
 10
210.09838084352134
 20
174.67029099257701
 11
212.19838084352148
 21
174.67029099257707
  0
LINE
  8
____
 62
     3
  6
continuous
 10
210.09838084352123
 20
156.87029099257748
 11
212.19838084352136
 21
156.87029099257742
  0
LINE
  8
____
 62
     3
  6
continuous
 10
210.09838084352123
 20
155.67029099257749
 11
212.19838084352136
 21
155.67029099257749
  0
LINE
  8
____
 62
     3
  6
continuous
 10
212.59838084352151
 20
173.47029099257745
 11
214.69838084352114
 21
173.4702909925775
  0
LINE
  8
____
 62
     3
  6
continuous
 10
212.59838084352151
 20
174.67029099257707
 11
214.69838084352114
 21
174.67029099257704
  0
LINE
  8
____
 62
     3
  6
continuous
 10
212.59838084352137
 20
156.8702909925774
 11
214.69838084352108
 21
156.87029099257748
  0
LINE
  8
____
 62
     3
  6
continuous
 10
212.59838084352137
 20
155.67029099257749
 11
214.69838084352108
 21
155.67029099257755
  0
LINE
  8
____
 62
     3
  6
continuous
 10
215.09838084352162
 20
173.4702909925775
 11
217.19838084352145
 21
173.47029099257745
  0
LINE
  8
____
 62
     3
  6
continuous
 10
215.09838084352168
 20
174.67029099257707
 11
217.19838084352145
 21
174.67029099257704
  0
LINE
  8
____
 62
     3
  6
continuous
 10
215.09838084352151
 20
156.87029099257745
 11
217.19838084352136
 21
156.87029099257751
  0
LINE
  8
____
 62
     3
  6
continuous
 10
215.09838084352151
 20
155.67029099257755
 11
217.19838084352136
 21
155.67029099257758
  0
LINE
  8
____
 62
     3
  6
continuous
 10
217.59838084352126
 20
173.47029099257745
 11
219.69838084352145
 21
173.47029099257739
  0
LINE
  8
____
 62
     3
  6
continuous
 10
217.59838084352134
 20
174.67029099257704
 11
219.69838084352148
 21
174.67029099257695
  0
LINE
  8
____
 62
     3
  6
continuous
 10
217.5983808435212
 20
156.87029099257748
 11
219.69838084352136
 21
156.87029099257754
  0
LINE
  8
____
 62
     3
  6
continuous
 10
217.59838084352117
 20
155.67029099257758
 11
219.69838084352136
 21
155.67029099257752
  0
LINE
  8
____
 62
     3
  6
continuous
 10
220.09838084352126
 20
173.47029099257739
 11
222.19838084352142
 21
173.47029099257747
  0
LINE
  8
____
 62
     3
  6
continuous
 10
220.09838084352131
 20
174.67029099257695
 11
222.19838084352148
 21
174.67029099257684
  0
LINE
  8
____
 62
     3
  6
continuous
 10
220.09838084352117
 20
156.87029099257754
 11
222.19838084352136
 21
156.87029099257757
  0
LINE
  8
____
 62
     3
  6
continuous
 10
220.09838084352117
 20
155.67029099257746
 11
222.19838084352136
 21
155.67029099257755
  0
LINE
  8
____
 62
     3
  6
continuous
 10
222.59838084352126
 20
173.47029099257747
 11
224.69838084352114
 21
173.4702909925775
  0
LINE
  8
____
 62
     3
  6
continuous
 10
222.59838084352126
 20
174.67029099257684
 11
224.69838084352114
 21
174.67029099257684
  0
LINE
  8
____
 62
     3
  6
continuous
 10
222.5983808435212
 20
156.87029099257759
 11
224.69838084352105
 21
156.87029099257754
  0
LINE
  8
____
 62
     3
  6
continuous
 10
222.5983808435212
 20
155.67029099257752
 11
224.69838084352105
 21
155.67029099257746
  0
LINE
  8
____
 62
     3
  6
continuous
 10
225.09838084352157
 20
173.47029099257747
 11
227.19838084352145
 21
173.47029099257753
  0
LINE
  8
____
 62
     3
  6
continuous
 10
225.0983808435216
 20
174.67029099257681
 11
227.19838084352145
 21
174.67029099257681
  0
LINE
  8
____
 62
     3
  6
continuous
 10
225.09838084352148
 20
156.87029099257754
 11
227.19838084352136
 21
156.87029099257742
  0
LINE
  8
____
 62
     3
  6
continuous
 10
225.09838084352148
 20
155.67029099257746
 11
227.19838084352136
 21
155.67029099257738
  0
LINE
  8
____
 62
     3
  6
continuous
 10
227.5983808435216
 20
173.47029099257753
 11
229.69838084352148
 21
173.47029099257745
  0
LINE
  8
____
 62
     3
  6
continuous
 10
227.5983808435216
 20
174.67029099257681
 11
229.69838084352145
 21
174.67029099257675
  0
LINE
  8
____
 62
     3
  6
continuous
 10
227.59838084352145
 20
156.87029099257742
 11
229.69838084352136
 21
156.87029099257734
  0
LINE
  8
____
 62
     3
  6
continuous
 10
227.59838084352145
 20
155.67029099257738
 11
229.69838084352136
 21
155.67029099257732
  0
LINE
  8
____
 62
     3
  6
continuous
 10
230.09838084352126
 20
173.47029099257745
 11
232.19838084352145
 21
173.47029099257753
  0
LINE
  8
____
 62
     3
  6
continuous
 10
230.09838084352126
 20
174.67029099257675
 11
232.19838084352142
 21
174.67029099257681
  0
LINE
  8
____
 62
     3
  6
continuous
 10
230.09838084352111
 20
156.8702909925774
 11
232.19838084352136
 21
156.87029099257745
  0
LINE
  8
____
 62
     3
  6
continuous
 10
230.09838084352111
 20
155.67029099257732
 11
232.19838084352136
 21
155.67029099257741
  0
LINE
  8
____
 62
     3
  6
continuous
 10
232.59838084352126
 20
173.47029099257753
 11
234.69838084352114
 21
173.47029099257753
  0
LINE
  8
____
 62
     3
  6
continuous
 10
232.59838084352123
 20
174.67029099257681
 11
234.69838084352114
 21
174.67029099257684
  0
LINE
  8
____
 62
     3
  6
continuous
 10
232.59838084352108
 20
156.87029099257742
 11
234.69838084352108
 21
156.87029099257751
  0
LINE
  8
____
 62
     3
  6
continuous
 10
232.59838084352108
 20
155.67029099257738
 11
234.69838084352108
 21
155.67029099257746
  0
LINE
  8
____
 62
     3
  6
continuous
 10
235.09838084352117
 20
173.47029099257753
 11
237.19838084352159
 21
173.47029099257747
  0
LINE
  8
____
 62
     3
  6
continuous
 10
235.09838084352126
 20
174.67029099257689
 11
237.19838084352153
 21
174.67029099257678
  0
LINE
  8
____
 62
     3
  6
continuous
 10
235.09838084352108
 20
156.87029099257751
 11
237.19838084352153
 21
156.87029099257754
  0
LINE
  8
____
 62
     3
  6
continuous
 10
235.09838084352108
 20
155.67029099257746
 11
237.19838084352153
 21
155.67029099257749
  0
LINE
  8
____
 62
     3
  6
continuous
 10
237.59838084352117
 20
173.47029099257745
 11
239.69838084352122
 21
173.47029099257762
  0
LINE
  8
____
 62
     3
  6
continuous
 10
237.59838084352123
 20
174.67029099257678
 11
239.69838084352122
 21
174.6702909925767
  0
LINE
  8
____
 62
     3
  6
continuous
 10
237.59838084352108
 20
156.87029099257748
 11
239.69838084352119
 21
156.8702909925774
  0
LINE
  8
____
 62
     3
  6
continuous
 10
237.59838084352108
 20
155.67029099257752
 11
239.69838084352119
 21
155.67029099257746
  0
LINE
  8
____
 62
     3
  6
continuous
 10
240.09838084352151
 20
173.47029099257759
 11
242.19838084352122
 21
173.47029099257767
  0
LINE
  8
____
 62
     3
  6
continuous
 10
240.09838084352151
 20
174.67029099257675
 11
242.19838084352122
 21
174.67029099257684
  0
LINE
  8
____
 62
     3
  6
continuous
 10
240.09838084352143
 20
156.87029099257737
 11
242.19838084352119
 21
156.87029099257734
  0
LINE
  8
____
 62
     3
  6
continuous
 10
240.09838084352143
 20
155.67029099257743
 11
242.19838084352119
 21
155.67029099257741
  0
LINE
  8
____
 62
     3
  6
continuous
 10
242.59838084352148
 20
173.47029099257767
 11
244.69838084352156
 21
173.47029099257779
  0
LINE
  8
____
 62
     3
  6
continuous
 10
242.59838084352148
 20
174.67029099257689
 11
244.69838084352153
 21
174.67029099257701
  0
LINE
  8
____
 62
     3
  6
continuous
 10
242.59838084352143
 20
156.87029099257731
 11
244.69838084352153
 21
156.8702909925772
  0
LINE
  8
____
 62
     3
  6
continuous
 10
242.59838084352143
 20
155.67029099257738
 11
244.69838084352153
 21
155.67029099257726
  0
LINE
  8
____
 62
     3
  6
continuous
 10
245.09838084352117
 20
173.47029099257776
 11
247.19838084352142
 21
173.4702909925775
  0
LINE
  8
____
 62
     3
  6
continuous
 10
245.09838084352117
 20
174.67029099257701
 11
247.19838084352148
 21
174.6702909925767
  0
LINE
  8
____
 62
     3
  6
continuous
 10
245.09838084352106
 20
156.87029099257717
 11
247.19838084352139
 21
156.87029099257745
  0
LINE
  8
____
 62
     3
  6
continuous
 10
245.09838084352106
 20
155.67029099257724
 11
247.19838084352139
 21
155.67029099257755
  0
LINE
  8
____
 62
     3
  6
continuous
 10
247.59838084352117
 20
173.47029099257747
 11
249.69838084352114
 21
173.47029099257767
  0
LINE
  8
____
 62
     3
  6
continuous
 10
247.5983808435212
 20
174.67029099257675
 11
249.69838084352116
 21
174.67029099257678
  0
LINE
  8
____
 62
     3
  6
continuous
 10
247.59838084352103
 20
156.87029099257745
 11
249.69838084352105
 21
156.87029099257774
  0
LINE
  8
____
 62
     3
  6
continuous
 10
247.59838084352103
 20
155.67029099257758
 11
249.69838084352105
 21
155.67029099257726
  0
LINE
  8
____
 62
     3
  6
continuous
 10
250.09838084352151
 20
173.47029099257767
 11
252.19838084352148
 21
173.47029099257776
  0
LINE
  8
____
 62
     3
  6
continuous
 10
250.09838084352145
 20
174.67029099257675
 11
252.19838084352148
 21
174.67029099257667
  0
LINE
  8
____
 62
     3
  6
continuous
 10
250.09838084352134
 20
156.87029099257771
 11
252.19838084352139
 21
156.87029099257754
  0
LINE
  8
____
 62
     3
  6
continuous
 10
250.09838084352134
 20
155.67029099257729
 11
252.19838084352139
 21
155.67029099257743
  0
LINE
  8
____
 62
     3
  6
continuous
 10
252.59838084352143
 20
173.47029099257773
 11
254.69838084352148
 21
173.4702909925775
  0
LINE
  8
____
 62
     3
  6
continuous
 10
252.59838084352143
 20
174.67029099257667
 11
254.69838084352145
 21
174.67029099257667
  0
LINE
  8
____
 62
     3
  6
continuous
 10
252.59838084352131
 20
156.87029099257751
 11
254.69838084352139
 21
156.87029099257757
  0
LINE
  8
____
 62
     3
  6
continuous
 10
252.59838084352131
 20
155.67029099257741
 11
254.69838084352139
 21
155.67029099257763
  0
LINE
  8
____
 62
     3
  6
continuous
 10
255.09838084352143
 20
173.47029099257747
 11
257.19838084352153
 21
173.47029099257711
  0
LINE
  8
____
 62
     3
  6
continuous
 10
257.59838084352128
 20
173.47029099257702
 11
260.32362567681287
 21
173.47029099257702
  0
LINE
  8
____
 62
     3
  6
continuous
 10
255.09838084352143
 20
174.6702909925767
 11
257.19838084352153
 21
174.67029099257627
  0
LINE
  8
____
 62
     3
  6
continuous
 10
257.59838084352134
 20
174.67029099257635
 11
260.32362567681281
 21
174.67029099257701
  0
LINE
  8
____
 62
     3
  6
continuous
 10
255.09838084352134
 20
156.87029099257757
 11
257.19838084352148
 21
156.87029099257808
  0
LINE
  8
____
 62
     3
  6
continuous
 10
257.59838084352117
 20
156.87029099257808
 11
260.32362567681281
 21
156.87029099257705
  0
LINE
  8
____
 62
     3
  6
continuous
 10
255.09838084352126
 20
155.67029099257761
 11
257.19838084352153
 21
155.67029099257704
  0
LINE
  8
____
 62
     3
  6
continuous
 10
257.59838084352117
 20
155.67029099257698
 11
260.32362567681281
 21
155.67029099257707
  0
LINE
  8
____
 62
     4
  6
continuous
 10
129.1483808435211
 20
181.67442520524247
 11
123.90101543390138
 21
181.67442520524247
  0
LINE
  8
____
 62
     4
  6
continuous
 10
129.1483808435211
 20
181.67442520524247
 11
127.67116921400279
 21
181.93489747174289
  0
LINE
  8
____
 62
     4
  6
continuous
 10
129.1483808435211
 20
181.67442520524247
 11
127.67116921400279
 21
181.41395293874209
  0
LINE
  8
____
 62
     4
  6
continuous
 10
211.14838084352152
 20
181.67442520524241
 11
202.74219697582276
 21
181.67442520524241
  0
LINE
  8
____
 62
     4
  6
continuous
 10
211.14838084352152
 20
181.67442520524241
 11
209.67116921400321
 21
181.9348974717428
  0
LINE
  8
____
 62
     4
  6
continuous
 10
211.14838084352152
 20
181.67442520524241
 11
209.67116921400321
 21
181.413952938742
  0
LINE
  8
____
 62
     4
  6
continuous
 10
251.14838084352152
 20
181.67442520524241
 11
260.0540753618501
 21
181.67442520524241
  0
LINE
  8
____
 62
     4
  6
continuous
 10
251.14838084352152
 20
181.67442520524241
 11
252.62559247303983
 21
181.9348974717428
  0
LINE
  8
____
 62
     4
  6
continuous
 10
251.14838084352152
 20
181.67442520524241
 11
252.62559247303983
 21
181.413952938742
  0
LINE
  8
____
 62
     4
  6
continuous
 10
83.572702582539875
 20
184.23289026604834
 11
99.312912886998745
 21
184.23289026604829
  0
LINE
  8
____
 62
     6
  6
continuous
 10
25.999999999999993
 20
200.5
 11
290.99999999999994
 21
200.5
  0
LINE
  8
____
 62
     6
  6
continuous
 10
290.99999999999994
 20
21.499999999999996
 11
290.99999999999994
 21
200.5
  0
LINE
  8
____
 62
     7
  6
continuous
 10
25.999999999999993
 20
21.499999999999996
 11
25.999999999999993
 21
200.5
  0
LINE
  8
____
 62
     6
  6
continuous
 10
25.999999999999993
 20
200.5
 11
25.999999999999993
 21
21.5
  0
LINE
  8
____
 62
     6
  6
continuous
 10
25.999999999999993
 20
21.499999999999996
 11
290.99999999999994
 21
21.499999999999996
  0
LINE
  8
____
 62
     6
  6
continuous
 10
290.99999999999994
 20
21.499999999999996
 11
25.999999999999993
 21
21.499999999999996
  0
LINE
  8
____
 62
     4
  6
continuous
 10
290.99999999999989
 20
21.499999999999996
 11
290.99999999999977
 21
16.5
  0
LINE
  8
____
 62
     4
  6
continuous
 10
220.99999999999977
 20
21.500000000001585
 11
220.99999999999969
 21
16.5
  0
LINE
  8
____
 62
     4
  6
continuous
 10
290.99999999999977
 20
16.5
 11
220.99999999999969
 21
16.5
  0
CIRCLE
  8
____
 62
     2
  6
continuous
 10
87.350721729452673
 20
54.070740974691084
 40
0.30000000000000004
  0
CIRCLE
  8
____
 62
     4
  6
continuous
 10
87.350721729453028
 20
126.87594828508628
 40
0.23999999999999999
  0
CIRCLE
  8
____
 62
     4
  6
continuous
 10
87.350721729453028
 20
126.87594828508628
 40
0.26999999999999996
  0
CIRCLE
  8
____
 62
     7
  6
continuous
 10
94.100721729453582
 20
109.37594828508769
 40
0.5
  0
CIRCLE
  8
____
 62
     4
  6
line_font21
 10
139.7140151252396
 20
122.37594828508898
 40
0.85000000000000009
  0
CIRCLE
  8
____
 62
     4
  6
line_font21
 10
139.7140151252396
 20
122.37594828508898
 40
1.05
  0
CIRCLE
  8
____
 62
     4
  6
line_font21
 10
139.7140151252396
 20
67.070740974687681
 40
0.85000000000000009
  0
CIRCLE
  8
____
 62
     4
  6
line_font21
 10
139.7140151252396
 20
67.070740974687681
 40
1.05
  0
CIRCLE
  8
____
 62
     4
  6
line_font21
 10
215.79588130393219
 20
122.37594828508898
 40
0.85000000000000009
  0
CIRCLE
  8
____
 62
     4
  6
line_font21
 10
215.79588130393219
 20
122.37594828508898
 40
1.05
  0
CIRCLE
  8
____
 62
     4
  6
line_font21
 10
215.79588130393219
 20
67.070740974687681
 40
0.85000000000000009
  0
CIRCLE
  8
____
 62
     4
  6
line_font21
 10
215.79588130393219
 20
67.070740974687681
 40
1.05
  0
ARC
  8
____
 62
     4
  6
continuous
 10
91.700721729450393
 20
69.22074097468635
 40
0.30000000000000004
 50
89.999999999983714
 51
180.00000000001083
  0
ARC
  8
____
 62
     4
  6
continuous
 10
91.700721729450393
 20
69.22074097468635
 40
0.60000000000000009
 50
89.999999999983714
 51
180.00000000001083
  0
ARC
  8
____
 62
     4
  6
continuous
 10
91.700721729450393
 20
64.920740974685629
 40
0.30000000000000004
 50
179.99999999998917
 51
270.00000000001626
  0
ARC
  8
____
 62
     4
  6
continuous
 10
91.700721729450393
 20
64.920740974685629
 40
0.60000000000000009
 50
179.99999999998917
 51
270.00000000001626
  0
ARC
  8
____
 62
     4
  6
continuous
 10
83.371555062785973
 20
67.07074097468626
 40
0.92083333333333206
 50
147.79577249602781
 51
212.20422750397219
  0
ARC
  8
____
 62
     4
  6
continuous
 10
82.73405506278597
 20
67.806862567902996
 40
0.2833333333333326
 50
119.99999999999962
 51
240.0000000000004
  0
ARC
  8
____
 62
     4
  6
continuous
 10
82.73405506278597
 20
66.334619381469523
 40
0.28333333333333377
 50
119.99999999999962
 51
240.0000000000004
  0
ARC
  8
____
 62
     4
  6
continuous
 10
91.379888396113728
 20
67.07074097468653
 40
0.92083333333333206
 50
327.79577249602141
 51
32.204227503965825
  0
ARC
  8
____
 62
     4
  6
continuous
 10
92.017388396113631
 20
66.334619381469707
 40
0.2833333333333326
 50
299.99999999999318
 51
59.999999999993975
  0
ARC
  8
____
 62
     4
  6
continuous
 10
92.017388396113773
 20
67.806862567903281
 40
0.28333333333333377
 50
299.99999999999318
 51
59.999999999993975
  0
ARC
  8
____
 62
     4
  6
continuous
 10
92.600721729455941
 20
69.22074097468672
 40
1.4000000000000001
 50
75.396009730172523
 51
104.60399026981311
  0
ARC
  8
____
 62
     4
  6
continuous
 10
92.895721729456113
 20
70.352940162109149
 40
0.22999999999999998
 50
0
 51
75.396009730174441
  0
ARC
  8
____
 62
     4
  6
continuous
 10
92.305721729456096
 20
70.352940162109149
 40
0.22999999999999998
 50
104.6039902698144
 51
179.99999999999292
  0
ARC
  8
____
 62
     4
  6
continuous
 10
92.350721729454577
 20
63.549416109283129
 40
0.28867513459481309
 50
210.00000000000492
 51
330.00000000000523
  0
ARC
  8
____
 62
     4
  6
continuous
 10
92.850721729454577
 20
63.549416109283221
 40
0.28867513459481303
 50
210.00000000000492
 51
330.00000000000523
  0
ARC
  8
____
 62
     7
  6
continuous
 10
85.475721729455628
 20
53.75946708692377
 40
3.8085156343613891
 50
60.506962643690301
 51
119.49303735638807
  0
ARC
  8
____
 62
     7
  6
continuous
 10
89.22572172945749
 20
60.654626267168901
 40
4.0414388664424576
 50
242.35812008956685
 51
297.64187991028729
  0
ARC
  8
____
 62
     7
  6
continuous
 10
85.475721729455671
 20
47.752032558659408
 40
3.8085156343613891
 50
60.506962643690301
 51
119.49303735638807
  0
ARC
  8
____
 62
     7
  6
continuous
 10
89.225721729457575
 20
54.647191738904532
 40
4.0414388664424576
 50
242.35812008956685
 51
297.64187991028729
  0
ARC
  8
____
 62
     4
  6
continuous
 10
94.250721729455492
 20
65.570740974690494
 40
0.60000000000000009
 50
159.51268488527066
 51
200.48731511471647
  0
ARC
  8
____
 62
     4
  6
continuous
 10
93.782346879575627
 20
65.745740974690491
 40
0.10000000000000001
 50
89.999999999991857
 51
159.51268488527208
  0
ARC
  8
____
 62
     4
  6
continuous
 10
93.782346879575584
 20
65.395740974690497
 40
0.10000000000000001
 50
200.48731511472027
 51
269.99999999999187
  0
ARC
  8
____
 62
     4
  6
continuous
 10
94.470721729446197
 20
65.466685436696295
 40
0.050000000007526073
 50
180
 51
360
  0
ARC
  8
____
 62
     4
  6
continuous
 10
94.470721729445827
 20
65.674796512609419
 40
0.050000000007389647
 50
0
 51
179.99999999995114
  0
ARC
  8
____
 62
     4
  6
continuous
 10
94.320721729459564
 20
65.326532707911028
 40
0.10000000000650289
 50
180.00000000002441
 51
360
  0
ARC
  8
____
 62
     4
  6
continuous
 10
94.320721729459564
 20
65.814949241448403
 40
0.10000000000650289
 50
0
 51
179.99999999997559
  0
ARC
  8
____
 62
     4
  6
continuous
 10
94.250721729455492
 20
68.570740974690494
 40
0.60000000000000009
 50
159.51268488527066
 51
200.48731511471647
  0
ARC
  8
____
 62
     4
  6
continuous
 10
93.782346879575627
 20
68.745740974690491
 40
0.10000000000000001
 50
89.999999999991857
 51
159.51268488527208
  0
ARC
  8
____
 62
     4
  6
continuous
 10
93.782346879575584
 20
68.395740974690497
 40
0.10000000000000001
 50
200.48731511472027
 51
269.99999999999187
  0
ARC
  8
____
 62
     4
  6
continuous
 10
94.470721729446197
 20
68.466685436696295
 40
0.050000000007526073
 50
180
 51
360
  0
ARC
  8
____
 62
     4
  6
continuous
 10
94.470721729445827
 20
68.674796512609419
 40
0.050000000007389647
 50
0
 51
179.99999999995114
  0
ARC
  8
____
 62
     4
  6
continuous
 10
94.320721729459564
 20
68.326532707911028
 40
0.10000000000650289
 50
180.00000000002441
 51
360
  0
ARC
  8
____
 62
     4
  6
continuous
 10
94.320721729459564
 20
68.814949241448403
 40
0.10000000000650289
 50
0
 51
179.99999999997559
  0
ARC
  8
____
 62
     6
  6
continuous
 10
83.600721729445482
 20
127.17594828508545
 40
0.20000000000000001
 50
90.000000000008143
 51
179.99999999972317
  0
ARC
  8
____
 62
     6
  6
continuous
 10
91.10072172944453
 20
127.17594828508682
 40
0.20000000000000001
 50
0
 51
90.000000000008143
  0
ARC
  8
____
 62
     4
  6
continuous
 10
91.700721729450393
 20
124.52594828508764
 40
0.30000000000000004
 50
89.999999999983714
 51
180.00000000001083
  0
ARC
  8
____
 62
     4
  6
continuous
 10
91.700721729450393
 20
124.52594828508764
 40
0.60000000000000009
 50
89.999999999983714
 51
180.00000000001083
  0
ARC
  8
____
 62
     4
  6
continuous
 10
91.700721729450393
 20
120.22594828508691
 40
0.30000000000000004
 50
179.99999999998917
 51
270.00000000001626
  0
ARC
  8
____
 62
     4
  6
continuous
 10
91.700721729450393
 20
120.22594828508691
 40
0.60000000000000009
 50
179.99999999998917
 51
270.00000000001626
  0
ARC
  8
____
 62
     4
  6
continuous
 10
83.371555062785973
 20
122.37594828508755
 40
0.92083333333333206
 50
147.79577249602781
 51
212.20422750397219
  0
ARC
  8
____
 62
     4
  6
continuous
 10
82.73405506278597
 20
123.11206987830428
 40
0.2833333333333326
 50
119.99999999999962
 51
240.0000000000004
  0
ARC
  8
____
 62
     4
  6
continuous
 10
82.73405506278597
 20
121.63982669187081
 40
0.28333333333333377
 50
119.99999999999962
 51
240.0000000000004
  0
ARC
  8
____
 62
     4
  6
continuous
 10
91.379888396113728
 20
122.37594828508782
 40
0.92083333333333206
 50
327.79577249602141
 51
32.204227503965825
  0
ARC
  8
____
 62
     4
  6
continuous
 10
92.017388396113631
 20
121.63982669187099
 40
0.2833333333333326
 50
299.99999999999318
 51
59.999999999993975
  0
ARC
  8
____
 62
     4
  6
continuous
 10
92.017388396113773
 20
123.11206987830457
 40
0.28333333333333377
 50
299.99999999999318
 51
59.999999999993975
  0
ARC
  8
____
 62
     4
  6
continuous
 10
92.600721729455941
 20
124.52594828508801
 40
1.4000000000000001
 50
75.396009730172523
 51
104.60399026981311
  0
ARC
  8
____
 62
     4
  6
continuous
 10
92.895721729456113
 20
125.65814747251044
 40
0.22999999999999998
 50
0
 51
75.396009730174441
  0
ARC
  8
____
 62
     4
  6
continuous
 10
92.305721729456096
 20
125.65814747251044
 40
0.22999999999999998
 50
104.6039902698144
 51
179.99999999999292
  0
ARC
  8
____
 62
     4
  6
continuous
 10
92.350721729454577
 20
118.85462341968442
 40
0.28867513459481309
 50
210.00000000000492
 51
330.00000000000523
  0
ARC
  8
____
 62
     4
  6
continuous
 10
92.850721729454577
 20
118.85462341968451
 40
0.28867513459481303
 50
210.00000000000492
 51
330.00000000000523
  0
ARC
  8
____
 62
     2
  6
continuous
 10
94.100721729451493
 20
135.17594828509218
 40
0.20000000000000001
 50
89.999999999959286
 51
179.99999999998371
  0
ARC
  8
____
 62
     2
  6
continuous
 10
96.100721729446846
 20
135.17594828508336
 40
0.20000000000000001
 50
0
 51
89.999999999829015
  0
ARC
  8
____
 62
     4
  6
continuous
 10
94.250721729455037
 20
120.87594828508827
 40
0.60000000000000009
 50
159.51268488527066
 51
200.48731511471647
  0
ARC
  8
____
 62
     4
  6
continuous
 10
93.782346879575215
 20
121.05094828508828
 40
0.10000000000000001
 50
89.999999999991857
 51
159.51268488527208
  0
ARC
  8
____
 62
     4
  6
continuous
 10
93.782346879575172
 20
120.70094828508827
 40
0.10000000000000001
 50
200.48731511472027
 51
269.99999999999187
  0
ARC
  8
____
 62
     4
  6
continuous
 10
94.250721729455393
 20
123.87594828507882
 40
0.60000000000000009
 50
159.51268488527066
 51
200.48731511471647
  0
ARC
  8
____
 62
     4
  6
continuous
 10
93.782346879575485
 20
124.05094828507882
 40
0.10000000000000001
 50
89.999999999991857
 51
159.51268488527208
  0
ARC
  8
____
 62
     4
  6
continuous
 10
93.782346879575485
 20
123.70094828507882
 40
0.10000000000000001
 50
200.48731511472027
 51
269.99999999999187
  0
ARC
  8
____
 62
     6
  6
continuous
 10
137.214015125244
 20
127.17594828508776
 40
0.20000000000000001
 50
90.000000000016286
 51
179.99999999999184
  0
ARC
  8
____
 62
     6
  6
continuous
 10
142.21401512524173
 20
127.1759482850856
 40
0.20000000000000001
 50
0
 51
90
  0
ARC
  8
____
 62
     4
  6
continuous
 10
142.01401512524259
 20
126.87594828517348
 40
0.60000000000000009
 50
339.51268488527751
 51
20.487315114723781
  0
ARC
  8
____
 62
     4
  6
continuous
 10
142.48238997512246
 20
126.70094828517347
 40
0.10000000000000001
 50
270
 51
339.51268488527967
  0
ARC
  8
____
 62
     4
  6
continuous
 10
142.48238997512246
 20
127.05094828517348
 40
0.10000000000000001
 50
20.487315114720289
 51
90
  0
ARC
  8
____
 62
     4
  6
continuous
 10
137.41401512523669
 20
126.87594828517348
 40
0.60000000000000009
 50
159.51268488527623
 51
200.48731511472249
  0
ARC
  8
____
 62
     4
  6
continuous
 10
136.94564027535682
 20
126.70094828517347
 40
0.10000000000000001
 50
200.48731511472027
 51
270
  0
ARC
  8
____
 62
     4
  6
continuous
 10
136.94564027535682
 20
127.05094828517348
 40
0.10000000000000001
 50
90
 51
159.51268488527973
  0
ARC
  8
____
 62
     2
  6
continuous
 10
132.46401512523389
 20
135.17594828509218
 40
0.20000000000000001
 50
89.999999999959286
 51
179.99999999998371
  0
ARC
  8
____
 62
     2
  6
continuous
 10
134.46401512522922
 20
135.17594828508336
 40
0.20000000000000001
 50
0
 51
89.999999999829015
  0
ARC
  8
____
 62
     2
  6
continuous
 10
146.96401512524542
 20
135.17594828509218
 40
0.20000000000000001
 50
0
 51
90.000000000040714
  0
ARC
  8
____
 62
     2
  6
continuous
 10
144.96401512525006
 20
135.17594828508336
 40
0.20000000000000001
 50
90.000000000170985
 51
179.9999999993812
  0
ARC
  8
____
 62
     4
  6
continuous
 10
139.71401512524065
 20
124.52594828508801
 40
1.4000000000000001
 50
75.396009730173077
 51
104.60399026981366
  0
ARC
  8
____
 62
     4
  6
continuous
 10
140.00901512524081
 20
125.65814747251044
 40
0.22999999999999998
 50
0
 51
75.396009730174441
  0
ARC
  8
____
 62
     4
  6
continuous
 10
139.4190151252408
 20
125.65814747251044
 40
0.22999999999999998
 50
104.60399026981098
 51
179.99999999999292
  0
ARC
  8
____
 62
     4
  6
continuous
 10
139.46401512523369
 20
118.85462341968442
 40
0.28867513459481309
 50
210.00000000000352
 51
330.00000000000381
  0
ARC
  8
____
 62
     4
  6
continuous
 10
139.96401512523369
 20
118.85462341968451
 40
0.28867513459481303
 50
210.00000000000352
 51
330.00000000000381
  0
ARC
  8
____
 62
     4
  6
continuous
 10
139.71401512524065
 20
69.220740974686706
 40
1.4000000000000001
 50
75.396009730173077
 51
104.60399026981366
  0
ARC
  8
____
 62
     4
  6
continuous
 10
140.00901512524081
 20
70.352940162109135
 40
0.22999999999999998
 50
0
 51
75.396009730174441
  0
ARC
  8
____
 62
     4
  6
continuous
 10
139.4190151252408
 20
70.352940162109135
 40
0.22999999999999998
 50
104.60399026981098
 51
179.99999999999292
  0
ARC
  8
____
 62
     4
  6
continuous
 10
139.46401512523369
 20
63.549416109283122
 40
0.28867513459481309
 50
210.0000000000023
 51
330.00000000000256
  0
ARC
  8
____
 62
     4
  6
continuous
 10
139.96401512523369
 20
63.549416109283214
 40
0.28867513459481303
 50
210.0000000000023
 51
330.00000000000256
  0
ARC
  8
____
 62
     7
  6
continuous
 10
138.46401512524102
 20
53.963906727926286
 40
2.3884129676506309
 50
58.442089937047903
 51
121.55791006300727
  0
ARC
  8
____
 62
     7
  6
continuous
 10
140.96401512524147
 20
57.690522276991558
 40
2.1031893136089321
 50
233.53472656277089
 51
306.46527343712131
  0
ARC
  8
____
 62
     7
  6
continuous
 10
138.46401512524102
 20
50.099455104419306
 40
2.3884129676506309
 50
58.442089937047903
 51
121.55791006300727
  0
ARC
  8
____
 62
     7
  6
continuous
 10
140.96401512524147
 20
53.826070653484578
 40
2.1031893136089321
 50
233.53472656277089
 51
306.46527343712131
  0
ARC
  8
____
 62
     2
  6
continuous
 10
159.46401512524542
 20
135.17594828509218
 40
0.20000000000000001
 50
0
 51
90.000000000040714
  0
ARC
  8
____
 62
     2
  6
continuous
 10
157.46401512525006
 20
135.17594828508336
 40
0.20000000000000001
 50
90.000000000170985
 51
179.9999999993812
  0
ARC
  8
____
 62
     2
  6
continuous
 10
171.96401512524542
 20
135.17594828509218
 40
0.20000000000000001
 50
0
 51
90.000000000040714
  0
ARC
  8
____
 62
     2
  6
continuous
 10
169.96401512525006
 20
135.17594828508336
 40
0.20000000000000001
 50
90.000000000170985
 51
179.9999999993812
  0
ARC
  8
____
 62
     6
  6
continuous
 10
213.29588130393654
 20
127.17594828508776
 40
0.20000000000000001
 50
90.000000000016286
 51
179.99999999999184
  0
ARC
  8
____
 62
     6
  6
continuous
 10
218.29588130393438
 20
127.1759482850856
 40
0.20000000000000001
 50
0
 51
90
  0
ARC
  8
____
 62
     4
  6
continuous
 10
218.09588130393519
 20
126.87594828517348
 40
0.60000000000000009
 50
339.51268488527751
 51
20.487315114723781
  0
ARC
  8
____
 62
     4
  6
continuous
 10
218.56425615381499
 20
126.70094828517347
 40
0.10000000000000001
 50
270
 51
339.51268488527967
  0
ARC
  8
____
 62
     4
  6
continuous
 10
218.56425615381499
 20
127.05094828517348
 40
0.10000000000000001
 50
20.487315114720289
 51
90
  0
ARC
  8
____
 62
     4
  6
continuous
 10
213.49588130392928
 20
126.87594828517348
 40
0.60000000000000009
 50
159.51268488527623
 51
200.48731511472249
  0
ARC
  8
____
 62
     4
  6
continuous
 10
213.02750645404936
 20
126.70094828517347
 40
0.10000000000000001
 50
200.48731511472027
 51
270
  0
ARC
  8
____
 62
     4
  6
continuous
 10
213.02750645404936
 20
127.05094828517348
 40
0.10000000000000001
 50
90
 51
159.51268488527973
  0
ARC
  8
____
 62
     2
  6
continuous
 10
208.54588130392645
 20
135.17594828509218
 40
0.20000000000000001
 50
89.999999999959286
 51
179.99999999998371
  0
ARC
  8
____
 62
     2
  6
continuous
 10
210.54588130392182
 20
135.17594828508336
 40
0.20000000000000001
 50
0
 51
89.999999999829015
  0
ARC
  8
____
 62
     2
  6
continuous
 10
223.04588130393802
 20
135.17594828509218
 40
0.20000000000000001
 50
0
 51
90.000000000040714
  0
ARC
  8
____
 62
     2
  6
continuous
 10
221.04588130394265
 20
135.17594828508336
 40
0.20000000000000001
 50
90.000000000170985
 51
179.9999999993812
  0
ARC
  8
____
 62
     2
  6
continuous
 10
196.04588130392645
 20
135.17594828509218
 40
0.20000000000000001
 50
89.999999999959286
 51
179.99999999998371
  0
ARC
  8
____
 62
     2
  6
continuous
 10
198.04588130392182
 20
135.17594828508336
 40
0.20000000000000001
 50
0
 51
89.999999999829015
  0
ARC
  8
____
 62
     2
  6
continuous
 10
183.54588130392648
 20
135.17594828509218
 40
0.20000000000000001
 50
89.999999999959286
 51
179.99999999998371
  0
ARC
  8
____
 62
     2
  6
continuous
 10
185.54588130392185
 20
135.17594828508336
 40
0.20000000000000001
 50
0
 51
89.999999999829015
  0
ARC
  8
____
 62
     4
  6
continuous
 10
214.29588130393327
 20
69.220740974686706
 40
1.4000000000000001
 50
75.396009730173077
 51
104.60399026981366
  0
ARC
  8
____
 62
     4
  6
continuous
 10
214.59088130393334
 20
70.352940162109135
 40
0.22999999999999998
 50
0
 51
75.396009730174441
  0
ARC
  8
____
 62
     4
  6
continuous
 10
214.0008813039334
 20
70.352940162109135
 40
0.22999999999999998
 50
104.60399026981098
 51
179.99999999999292
  0
ARC
  8
____
 62
     4
  6
continuous
 10
214.04588130392628
 20
63.549416109283122
 40
0.28867513459481309
 50
210.0000000000023
 51
330.00000000000256
  0
ARC
  8
____
 62
     4
  6
continuous
 10
214.54588130392628
 20
63.549416109283214
 40
0.28867513459481303
 50
210.0000000000023
 51
330.00000000000256
  0
ARC
  8
____
 62
     4
  6
continuous
 10
217.29588130393108
 20
69.220740974686706
 40
1.4000000000000001
 50
75.39600973018635
 51
104.60399026982692
  0
ARC
  8
____
 62
     4
  6
continuous
 10
217.00088130393101
 20
70.352940162109135
 40
0.22999999999999998
 50
104.60399026982557
 51
180.00000000000708
  0
ARC
  8
____
 62
     4
  6
continuous
 10
217.59088130393098
 20
70.352940162109135
 40
0.22999999999999998
 50
0
 51
75.396009730189036
  0
ARC
  8
____
 62
     4
  6
continuous
 10
217.5458813039381
 20
63.549416109283122
 40
0.28867513459481309
 50
209.99999999999741
 51
329.99999999999767
  0
ARC
  8
____
 62
     4
  6
continuous
 10
217.0458813039381
 20
63.549416109283214
 40
0.28867513459481303
 50
209.99999999999741
 51
329.99999999999767
  0
ARC
  8
____
 62
     4
  6
continuous
 10
214.29588130393327
 20
124.52594828508801
 40
1.4000000000000001
 50
75.396009730173077
 51
104.60399026981366
  0
ARC
  8
____
 62
     4
  6
continuous
 10
214.59088130393334
 20
125.65814747251044
 40
0.22999999999999998
 50
0
 51
75.396009730174441
  0
ARC
  8
____
 62
     4
  6
continuous
 10
214.0008813039334
 20
125.65814747251044
 40
0.22999999999999998
 50
104.60399026981098
 51
179.99999999999292
  0
ARC
  8
____
 62
     4
  6
continuous
 10
214.04588130392628
 20
118.85462341968442
 40
0.28867513459481309
 50
210.00000000000352
 51
330.00000000000381
  0
ARC
  8
____
 62
     4
  6
continuous
 10
214.54588130392628
 20
118.85462341968451
 40
0.28867513459481303
 50
210.00000000000352
 51
330.00000000000381
  0
ARC
  8
____
 62
     4
  6
continuous
 10
217.29588130393327
 20
124.52594828508801
 40
1.4000000000000001
 50
75.396009730173077
 51
104.60399026981366
  0
ARC
  8
____
 62
     4
  6
continuous
 10
217.59088130393334
 20
125.65814747251044
 40
0.22999999999999998
 50
0
 51
75.396009730174441
  0
ARC
  8
____
 62
     4
  6
continuous
 10
217.0008813039334
 20
125.65814747251044
 40
0.22999999999999998
 50
104.60399026981098
 51
179.99999999999292
  0
ARC
  8
____
 62
     4
  6
continuous
 10
217.04588130392628
 20
118.85462341968442
 40
0.28867513459481309
 50
210.00000000000352
 51
330.00000000000381
  0
ARC
  8
____
 62
     4
  6
continuous
 10
217.54588130392628
 20
118.85462341968451
 40
0.28867513459481303
 50
210.00000000000352
 51
330.00000000000381
  0
ARC
  8
____
 62
     3
  6
continuous
 10
170.06401512523979
 20
97.63130866631839
 40
0.10000000000000001
 50
180
 51
270
  0
ARC
  8
____
 62
     3
  6
continuous
 10
170.18401512523977
 20
97.751308666318394
 40
0.10000000000000001
 50
180
 51
270
  0
ARC
  8
____
 62
     3
  6
continuous
 10
170.06401512523979
 20
99.431308666318387
 40
0.10000000000000001
 50
90
 51
180
  0
ARC
  8
____
 62
     3
  6
continuous
 10
171.7440151252398
 20
99.311308666318382
 40
0.10000000000000001
 50
0
 51
90
  0
ARC
  8
____
 62
     3
  6
continuous
 10
171.8640151252398
 20
99.431308666318387
 40
0.10000000000000001
 50
0
 51
90
  0
ARC
  8
____
 62
     3
  6
continuous
 10
171.8640151252398
 20
97.63130866631839
 40
0.10000000000000001
 50
270
 51
360
  0
ARC
  8
____
 62
     3
  6
continuous
 10
170.26401512523978
 20
99.231308666318398
 40
0.30000000000000004
 50
359.47751218593089
 51
11.536959032816226
  0
ARC
  8
____
 62
     3
  6
continuous
 10
170.26401512523978
 20
99.231308666318398
 40
0.17999999999999999
 50
359.47751218593089
 51
270.52248781406911
  0
ARC
  8
____
 62
     3
  6
continuous
 10
170.50400514627927
 20
99.229120104813944
 40
0.059999999999999998
 50
179.47751218593089
 51
359.47751218593089
  0
ARC
  8
____
 62
     3
  6
continuous
 10
170.26620368674429
 20
98.991318645278881
 40
0.059999999999999998
 50
270.52248781406911
 51
90.522487814069123
  0
ARC
  8
____
 62
     3
  6
continuous
 10
170.18401512523977
 20
98.839390307473082
 40
0.10000000000000001
 50
78.463040967178998
 51
180
  0
ARC
  8
____
 62
     3
  6
continuous
 10
170.6559334840851
 20
99.311308666318382
 40
0.10000000000000001
 50
90
 51
191.53695903281465
  0
ARC
  8
____
 62
     3
  6
continuous
 10
170.26401512523978
 20
99.231308666318398
 40
0.30000000000000004
 50
258.46304096718433
 51
270
  0
ARC
  8
____
 62
     3
  6
continuous
 10
171.66401512523979
 20
97.831308666318392
 40
0.30000000000000004
 50
179.47751218593095
 51
191.53695903281624
  0
ARC
  8
____
 62
     3
  6
continuous
 10
171.66401512523979
 20
97.831308666318392
 40
0.17999999999999999
 50
179.47751218593089
 51
90.522487814069081
  0
ARC
  8
____
 62
     3
  6
continuous
 10
171.42402510420033
 20
97.833497227822846
 40
0.059999999999999998
 50
359.47751218593089
 51
179.47751218593089
  0
ARC
  8
____
 62
     3
  6
continuous
 10
171.6618265637353
 20
98.07129868735791
 40
0.059999999999999998
 50
90.522487814069123
 51
270.52248781406911
  0
ARC
  8
____
 62
     3
  6
continuous
 10
171.7440151252398
 20
98.223227025163695
 40
0.10000000000000001
 50
258.46304096717898
 51
360
  0
ARC
  8
____
 62
     3
  6
continuous
 10
171.2720967663945
 20
97.751308666318394
 40
0.10000000000000001
 50
270
 51
11.536959032814652
  0
ARC
  8
____
 62
     3
  6
continuous
 10
171.66401512523979
 20
97.831308666318392
 40
0.30000000000000004
 50
78.463040967184313
 51
90
  0
ARC
  8
____
 62
     6
  6
continuous
 10
247.21522459317725
 20
56.703057455072738
 40
0.30000000000000004
 50
180
 51
270
  0
ARC
  8
____
 62
     6
  6
continuous
 10
247.21522459317725
 20
62.903057455072741
 40
0.30000000000000004
 50
90
 51
180
  0
ARC
  8
____
 62
     6
  6
continuous
 10
251.01522459317727
 20
62.903057455072741
 40
0.30000000000000004
 50
0
 51
90
  0
ARC
  8
____
 62
     6
  6
continuous
 10
251.01522459317727
 20
56.703057455072738
 40
0.30000000000000004
 50
270
 51
360
  0
ARC
  8
____
 62
     6
  6
continuous
 10
251.21522459317725
 20
56.453057455072738
 40
0.40000000000000002
 50
270
 51
360
  0
ARC
  8
____
 62
     6
  6
continuous
 10
251.21522459317725
 20
63.153057455072741
 40
0.40000000000000002
 50
0
 51
90
  0
ARC
  8
____
 62
     6
  6
continuous
 10
247.01522459317727
 20
63.153057455072741
 40
0.40000000000000002
 50
90
 51
180
  0
ARC
  8
____
 62
     6
  6
continuous
 10
247.01522459317727
 20
56.453057455072738
 40
0.40000000000000002
 50
180
 51
270
  0
TEXT
  8
____
 62
     7
 10
108.36525878906251
 20
136.65479736328126
 40
2.4096385542168677
 41
1
  1
合成樹脂
  7
KANJI
 50
0
  72
    5
  11
116.36525878906251
  21
136.65479736328126
  0
TEXT
  8
____
 62
     7
 10
61.116052246093751
 20
137.26705322265624
 40
2.4096385542168677
 41
1
  1
ＳＵＳ３０４
  7
KANJI
 50
0
  72
    5
  11
73.116052246093744
  21
137.26705322265624
  0
TEXT
  8
____
 62
     7
 10
119.69881591796876
 20
73.068804931640628
 40
2.4096385542168677
 41
1
  1
ＳＵＳ３０４
  7
KANJI
 50
0
  72
    5
  11
131.69881591796877
  21
73.068804931640628
  0
TEXT
  8
____
 62
     7
 10
224.36740722656251
 20
82.656713867187506
 40
2.4096385542168677
 41
1
  1
Ａ
  7
KANJI
 50
0
  72
    5
  11
226.36740722656251
  21
82.656713867187506
  0
TEXT
  8
____
 62
     7
 10
205.224365234375
 20
82.656713867187506
 40
2.4096385542168677
 41
1
  1
Ａ
  7
KANJI
 50
0
  72
    5
  11
207.224365234375
  21
82.656713867187506
  0
TEXT
  8
____
 62
     7
 10
246.34658203125002
 20
78.170770263671884
 40
2.4096385542168677
 41
1
  1
Ａ－Ａ
  7
KANJI
 50
0
  72
    5
  11
252.34658203125002
  21
78.170770263671884
  0
TEXT
  8
____
 62
     7
 10
52.591114333422155
 20
148.16121889049271
 40
4.8192771084337354
 41
1
  1
詳細図
  7
KANJI
 50
0
  72
    5
  11
65.091114333422155
  21
148.16121889049271
  0
TEXT
  8
____
 62
     7
 10
85.413096402753553
 20
184.9228647592534
 40
4.8192771084337354
 41
1
  1
姿　図
  7
KANJI
 50
0
  72
    5
  11
97.913096402753553
  21
184.9228647592534
  0
TEXT
  8
____
 62
     7
 10
232.1776123046875
 20
22.151899337768555
 40
2.4096385542168677
 41
1
  1
（注）　１．特記なき材質はアルミニウム合金とする。
  7
KANJI
 50
0
  72
    5
  11
291.1776123046875
  21
22.151899337768555
  0
TEXT
  8
____
 62
     7
 10
240.96945190429687
 20
17.405786514282227
 40
3.6144578313253013
 41
1
  1
ＦＡ-０６００－１２
  7
KANJI
 50
0
  72
    5
  11
272.84445190429687
  21
17.405786514282227
  0
TEXT
  8
____
 62
     7
 10
234.92233276367187
 20
202.99250793457031
 40
4.8192771084337354
 41
1
  1
ＦＡ-０６００－１２
  7
KANJI
 50
0
  72
    5
  11
275.17233276367187
  21
202.99250793457031
  0
INSERT
  8
____
  2
BV_ATTRIBUTE1
 10
75.252905022168179
 20
49.070740974691333
  0
INSERT
  8
____
  2
BV_ATTRIBUTE2
 10
76.252905022168179
 20
49.070740974691333
  0
INSERT
  8
____
  2
BV_ATTRIBUTE3
 10
57.350721729452665
 20
29.070740974690821
  0
INSERT
  8
____
  2
BV_ATTRIBUTE4
 10
62.350721729452623
 20
54.070740974691219
  0
INSERT
  8
____
  2
BV_ATTRIBUTE5
 10
67.350721729452673
 20
125.37594828508844
  0
INSERT
  8
____
  2
BV_ATTRIBUTE6
 10
67.350721729452673
 20
119.37594828508837
  0
INSERT
  8
____
  2
BV_ATTRIBUTE7
 10
67.350721729452673
 20
64.070740974686771
  0
INSERT
  8
____
  2
BV_ATTRIBUTE8
 10
67.350721729452673
 20
54.070740974691219
  0
INSERT
  8
____
  2
BV_ATTRIBUTE9
 10
72.350721729450626
 20
122.37594828508709
  0
INSERT
  8
____
  2
BV_ATTRIBUTE10
 10
57.350721729452665
 20
49.070740974691311
  0
INSERT
  8
____
  2
BV_ATTRIBUTE11
 10
62.350721729452623
 20
135.37594828509219
  0
INSERT
  8
____
  2
BV_ATTRIBUTE12
 10
67.350721729452673
 20
70.070740974687169
  0
INSERT
  8
____
  2
BV_ATTRIBUTE13
 10
91.10072172945263
 20
109.37594828508821
  0
INSERT
  8
____
  2
BV_ATTRIBUTE14
 10
91.10072172945263
 20
109.37594828508821
  0
INSERT
  8
____
  2
BV_ATTRIBUTE15
 10
94.100721729453539
 20
109.37594828508821
  0
INSERT
  8
____
  2
BV_ATTRIBUTE16
 10
96.1007217294474
 20
135.37594828508335
  0
INSERT
  8
____
  2
BV_ATTRIBUTE17
 10
93.17298104447552
 20
124.82594828508877
  0
INSERT
  8
____
  2
BV_ATTRIBUTE18
 10
82.450721729452624
 20
123.11206987830428
  0
INSERT
  8
____
  2
BV_ATTRIBUTE19
 10
83.60072172945263
 20
81.52391211747431
  0
INSERT
  8
____
  2
BV_ATTRIBUTE20
 10
96.100721729460716
 20
85.551005286754574
  0
INSERT
  8
____
  2
BV_ATTRIBUTE21
 10
93.81709718740828
 20
70.070740974686601
  0
INSERT
  8
____
  2
BV_ATTRIBUTE22
 10
87.65072172945267
 20
54.07074097469124
  0
INSERT
  8
____
  2
BV_ATTRIBUTE23
 10
169.9640151252398
 20
104.43130866631839
  0
INSERT
  8
____
  2
BV_ATTRIBUTE24
 10
165.06401512523979
 20
99.531308666318395
  0
INSERT
  8
____
  2
BV_ATTRIBUTE25
 10
215.79588130393219
 20
127.37594828508657
  0
INSERT
  8
____
  2
BV_ATTRIBUTE26
 10
139.36102367224942
 20
70.575509233140949
  0
INSERT
  8
____
  2
BV_ATTRIBUTE27
 10
251.61522459317726
 20
68.553057455072789
  0
INSERT
  8
____
  2
BV_ATTRIBUTE28
 10
242.01522459317727
 20
56.053057455072739
  0
INSERT
  8
____
  2
BV_ATTRIBUTE29
 10
251.31522459317728
 20
61.053057455072661
  0
INSERT
  8
____
  2
BV_ATTRIBUTE30
 10
247.61522459317726
 20
56.403057455072741
  0
INSERT
  8
____
  2
BV_ATTRIBUTE31
 10
122.37625456577041
 20
176.67029099258033
  0
INSERT
  8
____
  2
BV_ATTRIBUTE32
 10
211.14838084352152
 20
186.67442520524247
  0
INSERT
  8
____
  2
BV_ATTRIBUTE33
 10
171.14838084352144
 20
186.67442520524247
  0
INSERT
  8
____
  2
BV_ATTRIBUTE34
 10
251.14838084352152
 20
186.67442520524241
  0
INSERT
  8
____
  2
BV_ATTRIBUTE35
 10
211.14838084352152
 20
181.67442520524241
  0
INSERT
  8
____
  2
BV_ATTRIBUTE36
 10
249.89838084352138
 20
181.67442520524241
  0
INSERT
  8
____
  2
BV_ATTRIBUTE37
 10
249.89838084352138
 20
181.67442520524241
  0
INSERT
  8
____
  2
BV_ATTRIBUTE38
 10
171.14838084352144
 20
181.67442520524247
  0
INSERT
  8
____
  2
BV_ATTRIBUTE39
 10
131.14838084352135
 20
181.67442520524247
  0
ENDSEC
  0
EOF
